Song name
# A B C D E F G H I J K L M N O P Q R S T U V W X Y Z

Buckethead - State Theatre tab

-------------------------------------------------------------------------------
			     SONG NAME - Band Name
-------------------------------------------------------------------------------
Tabbed by: mammadaddapoopoo
Email:

Tuning: Half step down capo on second fret ACCENT BASS NOTES
 INTRO
e|-0--------------------------------------------------------------------------------|
B|-0-------------4-------------4-----------4-----------4----------------------------|
G|-2-----------8------------8-----------8----------8--------------------------------|
D|-2-------6------------6------------6---------6------------------------------------|
A|-0---4------------4-------------0-------------------------------------------------|
E|------------------------------------------7---------------------------------------|
          REPEAT 3 times ^
e|------------------------------------------------------------------------------------|
B|------------0-----------------0---------------0---------------0---------------------|
G|-----9----------9------8---------8-----6----------6-----8---------------------------|
D|--------11-----------------9---------------7----------------9-----------------------|
A|--0-----------------0---------------0-----------------0-----------------------------|
E|------------------------------------------------------------------------------------|
      REPEAT ONCE ^
e|-------------------------------------------------------------------------------------|
B|------------0----------------0---------------0---------------------------------------|
G|----11---------11-----9----------9------8-------8------------------------------------|
D|--------13---------------11----------------9-----------------------------------------|
A|-0-----------------0----------------0------------------------------------------------|
E|-------------------------------------------------------------------------------------|
        REPEAT ONCE^

e|----------------------------------------------------------------------------------|
B|------------0------------0-----------0---------0-----------0----------------------|
G|---------4------------4-----------4----------2----------2-------------------------|
D|------2------------2-----------2-----------2---------2----------------------------|
A|--4------------4------------2-----------0---------0-------------------------------|
E|----------------------------------------------------------------------------------|
        REPEAT ONCE ^ SECOND TIME ROUND PLAY \/
e|-----------------------------------0-----------0----0-----------------------------|
B|---------0----------0----------0------------0-------0-----------------------------|
G|------4-----------4---------4------------4----------4-----------------------------|
D|---2-----------2--------2-------------2-------------2-----------------------------|
A|-0----------0---------------------------------------0-----------------------------|
E|----------------------------------------------------------------------------------|
      REPEAT WHOLE OF INTRO SECOND TIME ROUND CARRY ON
BRIDGE
e|------------0-------------------0-----------0---------0----------0--------------------|
B|-----8------------------------8----------8----------0----------0----------------------|
G|--------11-----9----------11----------11----------9---------9-------------------------|
D|--9--------------------9-----------9-----------7---------7----------------------------|
A|--------------------------------------------------------------------------------------|
E|--------------------------------------------------------------------------------------|

e|-----------0----------0----------------------------------------------------------|
B|--------0-----------0------------0-----------0-----------------------------------|
G|-----7-----------7-------------0-----------0-------------------------------------|
D|--5-----------4-------------9-----------9----------------------------------------|
A|-------------------------7-----------7-------------------------------------------|
E|---------------------------------------------------------------------------------|
        REPEAT ONCE^
e|----------------------------------------------------------------------------------------|
B|----------0----------0--------0--0-------------0----0-----0---0----------0-----0-----0--|
G|--------0----------0--------0----0-----------0----0----0------0--------0-----0------0---|
D|-----9----------9---------9------7--------5------5---5--------7------9-----9------9-----|
A|--7----------7---------7---------5-----3-----3-----3----------5----7-----7------7-------|
E|----------------------------------------------------------------------------------------|
      REPEAT AND IMPROVISE

FIRST TIME TABBING RUN OUT OF ROOM TO TAB.

===============================================================================
Tap to rate this tab
# A B C D E F G H I J K L M N O P Q R S T U V W X Y Z