Song name
# A B C D E F G H I J K L M N O P Q R S T U V W X Y Z

Buckethead - Electric Bell Blanket tab

Buckethead
Song:Electric Bell Blanket
Album: Albino Slug

Standard Tuning

e---------------------------------------------------------------------------|
B---------------------------------------------------------------------------|
G---------------------------------------------------------------------------|
D-----6--6h8-6h8-6h8--6-----6--8--------------------------------------------|
A--8---------------------8--------8--6------6-6h8-6h8-6h8--6-----6-8--------|
E----------------------------------------9--------------------9-------9--6--|

                                             1.
e----------------------------------------------------------------------|
B----------------------------------------------------------------------|
G----------------------------------------------------------------------|
D-----6--6h8-6h8-6h8--6-----6--8---------------------------------------|
A--8---------------------8--------8--6-----------6--6h8-6h8--6---------|
E--------------------------------------------9-------------------9--6--|

2.
e------------------------------------------------------|
B------------------------------------------------------|
G------------------------------------------------------|
D------------------------------------------------------|
A-----6--6h8-6h8-----6---------------------------------|
E--9--------------9-----6------------------------------|


Strum along 3x
e--1--1-----------------1--1--1--1--1--1-------------------------|
B--2--2----4--4--4------1--1--1--1--1--1-------------------------|
G--3--3----3--3--3------2--2--2--2--2--2-------------------------|
D--3--3----4--4--4------3--3--3--3--3--3-------------------------|
A--1--1----4--4--4------3--3--3--3--3--3-------------------------|
E-----------------------1--1--1--1--1--1-------------------------|


Play twice, couldn't quite distinguish all the triplets
but this is my best guess.

e-1-------------------------------------------------------------|
B-2-------------------------------------------------------------|
G-3----------------8--10--8--10--11--10--8-----8----------------|
D-3---10-8-10--11---------------------------11----11--10--9-----|
A-1-------------------------------------------------------------|
E---------------------------------------------------------------|

e----------------------------------------------------------|
B----------------------------------------------------------|
G-------------6--8--6--8--10--8--6-------------------------|
D--8-7-8--10------------------------10--8--7---------------|
A----------------------------------------------------------|
E----------------------------------------------------------|

e-------------------------------------------------------------|
B----------------------------10-------------------------------|
G------------------8--10--11----11--10--8--10--8--------------|
D-11-10-8--10--11---------------------------------11--10------|
A-------------------------------------------------------------|
E-------------------------------------------------------------|

e----------------------------------------------------------|
B----------------------------------------------------------|
G----------6--8--10--8--10--11--10--8----------------------|
D--7-8-10------------------------------11--10--8-----------|
A----------------------------------------------------------|
E----------------------------------------------------------|
Tap to rate this tab
 
# A B C D E F G H I J K L M N O P Q R S T U V W X Y Z