Song name
# A B C D E F G H I J K L M N O P Q R S T U V W X Y Z

Buckethead - Bolt On Neck tab

Bolt on Neck

Frankenstein Brothers (Buckethead and That 1 Guy) - Bolt on Neck Prototype #1

Main Riff
|---------------------------------------------------------------------|
|---------------------------------------------------------------------|
|---------------------------------------------------------------------|
|-x--x-x--9\6-6----x-x-9\6-6----x-x-9\6-6----x-x-9\6--9/11------------|
|-x--x-x--9\6-6----x-x-9\6-6----x-x-9\6-6----x-x-9\6--9/11------------|
|-x--x-x--7\4-4----x-x-7\4-4----x-x-7\4-4----x-x-7\4--7/9-------------| x4

Verse
|---------------------------------------------------------------------|
|---------------------------------------------------------------------|
|---------------------------------------------------------------------|
|---------------------------------------------------------------------|
|--9/11~---9--6h9p6---------------2~-2~-------------------------------|
|----------------------9----2--4---------4-2h4~-----------------------| x4

Verse End
|---------------------------------------------------------------------|
|---------------------------------------------------------------------|
|---------------------------------------4~-4~-------------------------|
|-------------------------------4--6------------6-4h6-----------------|
|--------2~-2~--------------------------------------------------------|
|--2--4---------4-2h4~------------------------------------------------|

Main Riff  x4

Verse x2

Verse Variation
|---------------------------------------------------------------------|
|---------------------------------------------------------------------|
|--11/13~--11--8h11p8------------------4~-4~--------------------------|
|------------------------11----4--6------------6-4h6------------------|
|---------------------------------------------------------------------|
|---------------------------------------------------------------------| 

Verse
Verse End
Main Riff x4

Verse x2 (Wah On)
Verse Variation
Verse 
Verse End

|-------|
|-------|
|-------|
|---6---|
|---6---|
|---4---|

That 1 Guy Solo (Anyone want to try to tab that?  Heh.)

Outro (Heavy Wah, try playing the first G# [4 on the 6th string] then muting the next three, etc.)
|---------------------------------------------------------------------|
|---------------------------------------------------------------------|
|---------------------------------------------------------------------|
|---------------------------------------------------------------------|
|---------------------------------5-5-5-4-4-4-------------------------|
|-4-4-4-4-4-4-4-4-4-4-4-4-4-4-4-4-------------7-7-7-7-7-7-7-7-7-7-----| x13

Main Riff x7
Tap to rate this tab
# A B C D E F G H I J K L M N O P Q R S T U V W X Y Z