Song name
# A B C D E F G H I J K L M N O P Q R S T U V W X Y Z

Buckethead - Star Wars tab

Buckethead - Star Wars
Since the last tab sucked, bigtime, here's a better version!
tabbed by The Shape

guitar 1 (3X)
|------------------------------------------|----------------------------------------------|
|------------------------------------------|----------------------------------------------|
|-----------------------------------------*|----------------------------------------------|
|-----------------------------------------*|----------------------------------------------|
|--\2-2-2-2-2-2-2-2-2-2-2-2----------------|--4-4-4-4-4-4-4-4-4-4-4-4-4-4-4-4-4-4-4-4-4\--|
|---------------------------------4--0--4--|----------------------------------------------|

guitar 2 (2x)
|---------------------------19---------------------19-----------------------------|
|--------19~------17-16---------19~------17-16---------19~------17-16-17----------|
|---16------------------18---------------------18------------------------18~-----*|
|--------------------------------------------------------------------------------*|
|---------------------------------------------------------------------------------|
|---------------------------------------------------------------------------------|

guitars 1 & 2 (guitar 1 - 2x)
|---------------------------------------------------------------------------------|
|---------------------------------------------------------------------------------|
|----------------2h4p2------------------------2---2---6--4~-----------------------|
|-------4~---6~------------------------4~---6---4---4--------------------4~---6~--|
|---4--------------------4~--------4------------------------------4-4-4-----------|
|---------------------------------------------------------------------------------|

|----------------------------------------------------------------|
|----------------------------------------------------------------|
|--2----/6----11~-----------------------------------------------*|
|----4-----7----------------------11~---------------------------*|
|------------------------12-11-9-------12-11-----------9~--------|
|---------------------------------------------9~--9--------------|

guitar 2
|------------4---5h7p5----------------------4-5---5---9--7~-------------------4~--|
|-------7~-----------------------------7~-------7---7--------------------7~-------|
|---6--------------------6~--------6------------------------------6-6-6-----------|
|---------------------------------------------------------------------------------|
|---------------------------------------------------------------------------------|
|---------------------------------------------------------------------------------|

|--5----/9-----14~---------------------------------------------------|
|----7-----10----------------------14~-------------------------------|
|------------------------14-13-11-------14--13-------------11~-------|
|-----------------------------------------------11~--11--------------|
|--------------------------------------------------------------------|
|--------------------------------------------------------------------|

guitars 1 & 2 (2x)
|--------------------------------------------------------------------------------------|
|--------------------------------------------------------------------------------------|
|-------------------------------------------------------------------------------------*|
|-------------------------------------------4-4-4-4-4-4-4-4-4-5--4--------------------*|
|----\2-2-2-2-2-2-2-2-2----5--2~------5--2~-------------------------5~------5--2~------|
|------------------3----------3-------------------------------------3------------------|

guitar 2
|------------------------------------------------------------------------------------------|
|---------------------------------------------16-16-16-16~--16-16-16~-16-16-16-16-16-16~---|
|---16-16-16-16~--16-16-16~-16-16-16-16-16-16~---------------------------------------------|
|------------------------------------------------------------------------------------------|
|------------------------------------------------------------------------------------------|
|------------------------------------------------------------------------------------------|

|-------------------------------------------------------------------------------------------|
|-19-19-19-19~--19-19-19~-19-19-19-19-19-19~---/24-24-24-24~--24-24-24~-24-24-24-24-24-24~--|
|-------------------------------------------------------------------------------------------|
|-------------------------------------------------------------------------------------------|
|-------------------------------------------------------------------------------------------|
|-------------------------------------------------------------------------------------------|

guitars 1 & 2 (strum B5)
|---------------------------------------------------------||
|---------------------------------------------------------||
|---4-----------------------------(4)------4\-------------||
|---4-----------------------------(4)------4\-------------||
|---2-----------------------------(2)------2\-------------||
|---------------------------------------------------------||

Tap to rate this tab
 
# A B C D E F G H I J K L M N O P Q R S T U V W X Y Z