Song name
# A B C D E F G H I J K L M N O P Q R S T U V W X Y Z

Buckethead - Halloween tab

Help us improve GuitareTab! Take a short survey!
Song: Halloween Theme
Artist: Buckethead
Creater: John Carpenter

 0
------
||||||
||||||
||||||
||||||
||||||
6|||||


 00000
------
||||||
||||||
||||||
||||||
555555
||||||


Tuning (6th fret low E sounds like 5th string, then use basic normal tuning for the rest.)


               Intro

|10--------10--------10-----11------|
|----8--8------8--8------8------8---|
|-----------------------------------|      4x
|-----------------------------------|
|-----------------------------------|
|-----------------------------------|



|10--------10--------10-----11------|
|----8--8------8--8------8------8---|
|-----------------------------------|      2x
|-----------------------------------|
|-----------------------------------|
|-----------------------------------|
                     Use both hands and tap nots at same time
                                                  | 
|-----------------------------------|
|-----------------------------------|
|-----------------------------------|
|-----------------------------------|
|-----------------------------------|
|3~~~~~~~~~~~~~~~~6~~~~~~~~~~~~~~~~~|




|9--------9--------9-----10---------|
|---7--7-----7--7-----7------7------|
|-----------------------------------|     2x
|-----------------------------------|
|-----------------------------------|
|-----------------------------------|
                      Use both hands and tap nots at same time                 
                  |
|-----------------------------------|
|-----------------------------------|
|-----------------------------------|
|-----------------------------------|
|-----------------------------------|
|2~~~~~~~~~~~~~~~~~~~~~~~~~~~~~~~~~~|



|8--------8--------8-----9----------|
|---6--6-----6--6-----6-----6-------|
|-----------------------------------|      2x
|-----------------------------------|
|-----------------------------------|
|-----------------------------------|
                    Use both hands and tap nots at same time      
                  |
|-----------------------------------|
|-----------------------------------|
|-----------------------------------|
|-----------------------------------|
|-----------------------------------|
|1~~~~~~~~~~~~~~~~4~~~~~~~~~~~~~~~~~|



|7--------7--------7-----8----------|
|---5--5-----5--5-----5-----5-------|
|-----------------------------------|       2x
|-----------------------------------|
|-----------------------------------|
|-----------------------------------|
                    Use both hands and tap nots at same time      
                  |
|-----------------------------------|
|-----------------------------------|
|-----------------------------------|
|-----------------------------------|
|-----------------------------------|
|0~~~~~~~~~~~~~~~~~~~~~~~~~~~~~~~~~~|



|15----------15----------16---------|
|----13--13------13--13------13-----|
|-----------------------------------|       4x
|-----------------------------------|
|-----------------------------------|
|-----------------------------------|
                    Use both hands and tap nots at same time
                  |
|-----------------------------------|
|-----------------------------------|
|-----------------------------------|
|-----------------------------------|
|-----------------------------------|
|8~~~~~~~11~~~~~~~13~~~~~~~15~~~~~~~|
Related for Halloween tab