Song name
# A B C D E F G H I J K L M N O P Q R S T U V W X Y Z

Buckethead - This Is Halloween tab

-------------------------------------------------------------------------------
			  This is Halloween - Buckethead
-------------------------------------------------------------------------------
Tabbed by:Xain333
Email:Zeppelinisim@hotmail.com

Tuning:

e|----7-7-7-7-7-8-5-5----5-5-5-5-5-7-8-7----7-7-7-7-10-8-7-5-----------------|
B|----8-8-8-8-8-8-7-7----7-7-7-7-7-8-8-8----8-8-8-8--------------------------|
G|---------------------------------------------------------------------------|
D|---------------------------------------------------------------------------|
A|---------------------------------------------------------------------------|
E|----0-0-0-0-0-0-0-0----0-0-0-0-0-0-0-0----0-0-0-0--------------------------|

e|----5-5-5-7-8-7-3-3--------------------------------------------------------|
B|---------------------------------------------------------------------------|
G|---------------------------------------------------------------------------|
D|---------------------------------------------------------------------------|
A|-----------------------5-5-5-4-2-5-5-5-4-2----5-0-0-------2-3--------------|
E|-----------------------2-2-------2-2----------------3-2-0------------------|

e|---------------------------------------------------------------------------|
B|---------------------------------------------------------------------------|
G|---------------------------------------------------------------------------|
D|---------------------------------------------------------------------------|
A|----7-7-7-6-4-7-7-7-6-4----7-2-2-------4-5---------------------------------|
E|----4-4-------4-4----------------5-4-2-------------------------------------|
Tap to rate this tab
# A B C D E F G H I J K L M N O P Q R S T U V W X Y Z