Song name
# A B C D E F G H I J K L M N O P Q R S T U V W X Y Z

Buckethead - Help Me tab

First Part

------------------------------------------------------------------------------|
------------------------------------------------------------------------------|
------------------------------------------------------------------------------|
------------------------------------------------------------------------------|
-9-5-8-4-4---9-5-8-4-4---6/7-3-2-5-5---6/7-3-2-5-5----------------------------|
-7-3-6-2-2---7-3-6-2-2---4/5-1-0-3-3---4/5-1-0-3-3----------------------------|

Second Part

------------------------------------------------------------------------------|
------------------------------------------------------------------------------|
---------------x4-------------------------------------------------------------|
------------------------------------------------------------------------------|
-3-3-2-3-6-6------------------------------------------------------------------|
-1-1-0-1-4-4------------------------------------------------------------------|

Third Part (repeat a few times)

------------------------------------------------------------------------------|
------------------------------------------------------------------------------|
------------------------------------------------------------------------------|
------------------------------------------------------------------------------|
-------4-------4-------4-------4-------4-------4-------4--------5-------------|
-0-0-0---0-0-0---0-0-0---0-0-0---0-0-0---0-0-0---0-0-0---0-0-0--3-------------|

Last Part (play a few times) then no more guitar for the rest of the song

------------------------------------------------------------------------------|
------------------------------------------------------------------------------|
------------------------------------------------------------------------------|
------------------------------------------------------------------------------|
------------------------------------------------------------------------------|
-2-1-4-3-7-6-5----------------------------------------------------------------|

that's it it's a fairly easy song
Tap to rate this tab
 
# A B C D E F G H I J K L M N O P Q R S T U V W X Y Z