Song name
# A B C D E F G H I J K L M N O P Q R S T U V W X Y Z

Buckethead - Blueprints tab

This is just the intro, I can't seem to find the whole song anywhere so I don't even 
how the rest of it goes.
You can mess around and try some of the notes on different octaves but I'm not gonna tab 
the little variations he throws in, but this is a solid tab.

First Riff (x4)

e----------------------------------|
B----------------------------------|
G----------------------------------|
D-----------3---5/6----------------|
A-------6--------------------------|
E--4--4---4---4------4-6-4-8-6-4---|

Second Riff (x2)

e-----------------------------------------------------------|
B-----------------------------------------------------------|
G---------------------------6-----------------5-6-5-6-5-3~--|
D------5/6-5-3-1--1-3-1-5-1-6------5/6-5-3-1----------------|
A-----------------------------------------------------------|
E--1-1-------------------------1-1--------------------------|

And that's about it, enjoy.
Tap to rate this tab
 
# A B C D E F G H I J K L M N O P Q R S T U V W X Y Z