Guitaretab - guitar tabs
Song name
# A B C D E F G H I J K L M N O P Q R S T U V W X Y Z

Buckethead - Spell Of The Gypsies tab

Spell Of The Gypsies By Buckethead

ok don't complain i figured this out in about two hours if you do have any complaints go 
www.youtube.com/jackstonethefirst thats my youtube page any way this is the lead 
nothing else i just like this song its really good to play

-----------------------------------------2---------------------|
------------4--------2---------4-------------------5-----------|
---------------------------------------------------------------|
---------------------------------------------------------------|
------------2--------------------------------------7-----------|
---------------------2---------4---------2---------------------|
And repeat that for a while

------------------------------------------------------------------------|
----4---------4--5-------2-------------------------------------------5--|
---------------------------------------4-----4--6--3--------------------|
----------------------------------------------------------4---4-6-------|
------------------------------------------------------------------------|
------------------------------------------------------------------------|

------------------------------------------------------------------------|
----4---------4--5-------2--------------------------------------------5-|
----------------------------------------4-----4--6--3--------------4-6--|
----------------------------------------------------------4---4-6-------|
------------------------------------------------------------------------|
------------------------------------------------------------------------|

------------------------------------------------------------------------|
----4---------4--5-------2-------------------------------------------5--|
---------------------------------------4-----4--6--3--------------------|
----------------------------------------------------------4---4-6-------|
------------------------------------------------------------------------|
------------------------------------------------------------------------|


---------------------------------------------------------------------|
--4-2-4----4--5---2------7-5-4------4--2--2-4------------------------|
----------------------------------4----------------3-----------------|
---------------------------------------------------------4--4-6------|
---------------------------------------------------------------------|
---------------------------------------------------------------------|

-----------------------------------------------------------------|
--5-----4-5-4--4---------12--11--11-12----1414/16---------------|
-----------------------11----------------------------------------|
-----------------------------------------------------------------|
-----------------------------------------------------------------|
-----------------------------------------------------------------|


-----------------------------------------------------------------|
--11---12-11-----------------------------------------------------|
---------------13--------11----13--------------------------------|
-----------------------------------------------------------------|
-----------------------------------------------------------------|
-----------------------------------------------------------------|
[ Tab from: http://www.guitaretab.com/b/buckethead/178905.html ]
------------------------------------------------------------------|
-------------------12-11-12------12----12------12~----------------|
--------9---11----------------11-----9-------8--------------------|
---13-------------------------------------------------------------|
------------------------------------------------------------------|
------------------------------------------------------------------|

------------------------------------------------------------------|
---12-11-12------12---12----12-11-12------------------------------|
---------------11-----9----8--------------------------------------|
------------------------------------------------------------------|
------------------------------------------------------------------|
------------------------------------------------------------------|
Repeat

-----------------------------------------------------------------|
-----------------------------------------------------------------|
------------------------------------------------------9~---------|
--13--13-14--13----11------9-------------------9-----------------|
-----------------------------------------9---11------------------|
-----------------------------------------------------------------|


------------------------------6---6-7---9----11--11---------------|
---------------------------x--------------------------------------|
-------------------------x----------------------------------------|
----------9-11---/13----------------------------------------------|
---9-11-----------------------------------------------------------|
------------------------------------------------------------------|

--9--7--6---6--66/7---------------------------------------------------|
-------------7--77/9-----12--11-------------------9-7-----------------|
--------------------------------------11------9-8-8--------8---6-------|
-------------------------------------------9---------------------------|
-----------------------------------------------------------------------|
-----------------------------------------------------------------------|

--------------6---7-6---------6-7-7-9-------14----12-11----------|
-------7-8-9-----------9-----------------------------------------|
--8-9------------------------------------11----------------------|
-----------------------------------------------------------------|
-----------------------------------------------------------------|
-----------------------------------------------------------------|

--11--11---11----9----9------7---7-------------------------------|
--12--12---12----11---11----9---9--------------------------------|
-----------------------------------------------------------------|
-----------------------------------------------------------------|
-----------------------------------------------------------------|
-----------------------------------------------------------------|

--11--9----------------------------------------------------------------|
---------12--12-11---11/12---9~------9--9--8-9----11--12-11-9----------|
-----------------------------------------------------------------------|
-----------------------------------------------------------------------|
-----------------------------------------------------------------------|
-----------------------------------------------------------------------|

-11--11----14-12-11~------12-119~-------7-66~------------------|
-----------------------------------------------------------------|
-----------------------------------------------------------------|
-----------------------------------------------------------------|
-----------------------------------------------------------------|
-----------------------------------------------------------------|
Related for Spell Of The Gypsies tab