Guitaretab - guitar tabs
Song name
# A B C D E F G H I J K L M N O P Q R S T U V W X Y Z

Buckethead - Go Go Power Rangers tab

Go Go Power Rangers Tab

I speak spanish but for you im writing in english.....

This Tab is easier than the others because in the tapping we only need to do it with 2 
case of 3.....
Im gonna show you what im talking about.....


First ,
e|----------------------------------------------------|
B|----------------------------------------------------|
G|----------------------------------------------------|
D|-----9-----9-----9-----9-----9/10-------------------|
A|-----7-----7-----7-----7-----7/8--------------------|
E|-0-0---0-0---0-0---0-0---0-0------------------------|
  4 times
[ Tab from: http://www.guitaretab.com/b/buckethead/179057.html ]
Then goes the tapping part, Keep your finger on 5 and with the other hand do tapping its
easy so i think that is not tapping jaja..
1 tap               2 tap             3 tap           4 tap
e|------------|    e|------------|  e|---------|    e|-----------|
B|--5h8p5-----|    B|--5h10p5----|  B|--7h12p7-|    B|--5h12p5---|
G|------------|    G|------------|  G|---------|    G|-----------|
D|------------|    D|------------|  D|---------|    D|-----------|
A|------------|    A|------------|  A|---------|    A|-----------|
E|------------|    E|------------|  E|---------|    E|-----------|
                     5 tap              End tap
                    e|------------|   e|-------------|
                    B|--10h13p10--|   B|-12~---------|
                    G|------------|   G|-------------|
                    D|------------|   D|-------------|
                    A|------------|   A|-------------|
                    E|------------|   E|-------------|
OK This you need to do it rapidly i dont know how many times exactly you need to do it
if you listen the song you gonna make it......
It goes the 1 tap at certainly time is the longest i think, then 2 tap a little bit less
the 3 tap a certainly time then 4 tap also a certainly time and then the 5 tap a
time to end with the 12~....  FULL CERTAINLY TIME JJAJAJAJA I HOPE YOU UNDERSTAND

After all of this shit Goes  this
e|--------------------------------------------------|
B|--------------------------------------------------|
G|--------------------------------------------------|
D|--------------------------------------------------|
A|-17------19-20~---17-------20-19~-----------------|
E|----19-17------------19-17----------16~/----------|
   |_ _ _ _ _ _ _ _ _ _ _ _ _ _ _|
             2 TIMES

Then

e|-----------------------------------------------------------|
B|-----------------------------------------------------------|
G|-----------------------------------------------------------|
D|-----9-----9-----9-----9-----9/10-9/10/11/12/13/14/15/16--|
A|-----7-----7-----7-----7-----7/8---7/-8/-9/10/11/12/13/14--|
E|-0-0---0-0---0-0---0-0---0-0-------------------------------|
   |_ _ _ _ _ _ _ _ _ _ _ _ _ _ _ _|
                   2 Times


Then you only repeat this to end the song
e|--------------------------------------------------|
B|--------------------------------------------------|
G|--------------------------------------------------|
D|--------------------------------------------------|
A|-17------19-20~---17-------20-19~-----------------|
E|----19-17------------19-17----------16~/----------|
   |_ _ _ _ _ _ _ _ _ _ _ _ _ _ _|
             2 TIMES

This tab is for the intermediates and beginers i hope you like this tab for answers
my mail cristian_doesntmatter94@hotmail.com
Related for Go Go Power Rangers tab