Guitaretab - guitar tabs
Song name
# A B C D E F G H I J K L M N O P Q R S T U V W X Y Z

Buckethead - Pirates Life For Me tab

A Pirate’s Life For Me

This  is just an easier version of the Buckethead song from Giant Robot and the 
album

You can rate it bad if you want those of you who can play the original I just wrote this 
for people who have just started out and want to rock some music to feel  good about

So enjoy little Bucketheads
Keep Binging

Also if you play it with some kind of effect like auto-wah or a modular pedal or a 
its sounds rad!

I've Separated it in parts i did it in Guitar Pro so the bars are from That
Play In 6/8
E||---5--5--5--2--2--2-|--------------------||
B||--------------------|-9--9—-9--5--5--5---||
G||--------------------|--------------------||
D||--------------------|--------------------||
A||--------------------|--------------------||
E||--------------------|--------------------||

[ Tab from: http://www.guitaretab.com/b/buckethead/180549.html ]
E||--2---2--2--4--6--|--7-7-----||
B||------------------|--7-------||
G||------------------|---------*||
D||------------------|---------*||
A||------------------|----------||
E||------------------|----------||


E||-----------------|-----------------|-12--12-12-14-|----||
B||--14-16-17-16-14-|-13-14-16--------|--------------|-16-||
G||-----------------|----------13—-13-|--------------|----||
D||-----------------|-----------------|--------------|----||
A||-----------------|-----------------|--------------|----||
E||-----------------|-----------------|--------------|----||


E||-17-16-14------14-16-|-19--17-16-|-2--2-2-4-6-|---7-7---||
B||-----------17--------|-----------|------------|---7-----||
G||---------------------|-----------|------------|--------*||
D||---------------------|-----------|------------|--------*||
A||---------------------|-----------|------------|---------||
E||---------------------|-----------|------------|---------||
Related for Pirates Life For Me tab
×
Pirates Life For Me