Song name
# A B C D E F G H I J K L M N O P Q R S T U V W X Y Z

Buckethead - Disecto tab

Help us improve GuitareTab! Take a short survey!
I saw that there weren't any good tabs for this so I decided to at least try
and contribute something for the great buckethead. There is some ambiance in
the beginning that I can't really figure out but this tab should work. It's
pretty easy, but you kind of need a killswitch for the sweet part in the
middle.

Tuning: Eb (1/2 step down)

Intro: (Start-00:15)
--17------------------------------------------------------------------------|
----18---------18--18-----------18-------16---------------------------------|
15----15-15-14----------X7----17--17---15--15-------------------------------|
-----------------15---------15-------13-------------------------------------|
----------------------------------------------------------------------------|
----------------------------------------------------------------------------|

1st Verse: (00:16-00:33)
----------------------------------------------------------------------|
----------------------------------------------------------------------|
10s12-10s12-10s12-10s12-10-10-12-8-----7-7-8-5------------------------|
10s12-10s12-10s12-10s12-10-10-12-8--X3-7-7-8-5--8-8-7-5---------------|
8s10--8s10--8s10--8s10--8--8--10-6-----5-5-6-3--8-8-7-5---------------|
------------------------------------------------6-6-5-3---------------|

Quiet buildup (00:34-01:04)
(The 3-3p2p0 is really quiet)

(For the second half (The part repeated four times) you don't play the last
2 notes (10 &8) the second and fourth time you play the riff)

Riff 1                 Riff 2
-------------------------------------------------|
8-6-6-----6------------11-10-10------------------|
------5-7---3-3p2p0-X8---------10-12-10-8-10-X4--|(Then do riff 1 four times)
-------------------------------------------------|
-------------------------------------------------|
-------------------------------------------------|

Killswitch thing: (01:05-01:22)
For this I try to use the lower string as much as possible, because it's
easier to make them sound while tapping with the left hand, while using the
right to work the killswitch.
---------------------------------------------------------------------------------------------|
---------------------------------------------------------------------------------------------|
--19-19-19-19-22-22-22-22--------------------------------------------------------------------|
--------------------------20-20-20-20-22-22-22-22--------------------------------------------|
12\-----------------------------------------------20-20-20-20-20-22-22-22-22-22-22-22-22-22--|
12\------------------------------------------------------------------------------------------|

Funky riff: (01:24-01:155)
-----------------------------------------------------------------------------|
-----------------------------------------------------------------------------|
----5-7-10-12-12----7-5-7-3-5-----Do the entire thing again and end with:5---|
5-8-5-7-10-12-12-X3-7-5-7-3-5-3-5----------------------------------------3-5-|
5-8-3-5-8--10-10----5-3-5-1-3-3-5----------------------------------------3-5-|
3-6---------------------------1-3------------------------------------------3-|

Outro mosh thing:

-----------------------------------------------------------------------|
-----------------------------------------------------------------------|
--------------------------------------6--------------------------------|
5-5---------------6-5-5---------------6--------------------------------|
5-5-------------5-6-5-5-------------5-4--------------------------------|
3-3-3333333333333-4-3-3-3333333333333----------------------------------|
    .............       .............


-----------------------------------------------------------------|
-----------------------------------------------------------------|
-----------------------------------------------------------------|
5-5---------------6-5-5------------------------------------------|
5-5-------------5-6-5-5------------------------------------------|
3-3-3333333333333-4-3-3-333333333333333333333333333333333333-----|
    .............       ....................................

------------------------------------------------------------------|
------------------------------------------------------------------|
------------------------------------------------------------------|
5-5---------------------------------------------------------------|
5-5---------------------------------------------------------------|
3-3-3333333333333-3-3-3333333-------------------------------------|
    ............. . . .......
Related for Disecto tab