Song name
# A B C D E F G H I J K L M N O P Q R S T U V W X Y Z

Buckethead - Dawn At The Deuce tab

----------------------------------------------------------------
Dawn at Deuce - Buckethead
-----------------------------------------------------------------
Tabbed by: jonathong56
Email: gl.jonathan@gmail.com

Tuning:
eb
Bb
Gb
Db
Ab
Eb

listen to the song for timing

e|--------10P9---------------------10p9-------------7------------|
B|-------------0-10-7-0-10--------------0-10-7-0-10--------------|
G|---------------------------------------------------------------|
D|---------------------------------------------------------------|
A|---------------------------------------------------------------|
E|---7-7---------------------7-7---------------------------------|


e|-------------------------------------------------------------------|
B|-------------------------------------------------------------------|
G|--0-0-0------------------------------------------------------------|
D|--4-4-4------------------------------------------------------------|
A|--5-5-5------------------------------------------------------------|
E|--3-3-3------------------------------------------------------------|

e|-----------------------------------------------------------------|
B|-----------------------------------------------------------------|
G|--7-7-7-7-7-7-7-7-7--6-6-6--7-7h9--7-6---------------------------|
D|--7-7-7-7-7-7-7-7-7--7-7-7--7--7---7-7---------------------------|
A|-----------------------------------------------------------------|
E|-----------------------------------------------------------------|


BRIDGE

guitar 1
e|-----------------------------------------------------------------|
B|--17-17-17-15-15-15-19-19-19-14-14-14-14-14-14-------------------|
G|-----------------------------------------------------------------|
D|-----------------------------------------------------------------|
A|-----------------------------------------------------------------|
E|-----------------------------------------------------------------|

e|------------------------------------------------------------------|
B|--17-17-17-15-15-15-20-20-20-19-19-19-19-19-19--------------------|
G|------------------------------------------------------------------|
D|------------------------------------------------------------------|
A|------------------------------------------------------------------|
E|------------------------------------------------------------------|

e|------------------------------------------------17-17-17-15-15-15-14-14-14-14--------|
B|--17-17-17-15-15-15-19-19-19-14-14-14-14-14-14---------------------------------------|
G|-------------------------------------------------------------------------------------|
D|-------------------------------------------------------------------------------------|
A|-------------------------------------------------------------------------------------|
E|-------------------------------------------------------------------------------------|

guitar 2

kind of  sort of
e|----------------------------------------------------------------------|
B|----------------------------------------------------------------------|
G|-----------------------4---4---4---4----------------------------------|
D|---4---4---4---4------------------------------------------------------|
A|---------------------5---5---5---5---5--------------------------------|
E|-3---3---3---3---3----------------------------------------------------|


next part
sort of

e|-----------------------------------------------------------------------|
B|---------1-------------------------------------------------------------|
G|-------1---1--------------------2---0----------------------------------|
D|-----0-------0---0---0--------4-----4----------------------------------|
A|---5-----------5---5--------5-------5----------------------------------|
E|--------------------------3---------3----------------------------------|


SOLO

GUITAR 2 OVER SOLO

e|---------------------------------------------------------------|
B|---------------------------------------------------------------|
G|-7-7-7-7-7-7-7-7---6-6-6-6-6-6-6--4-4-4-4-4-4-4----------------|
D|-7-7-7-7-7-7-7-7---7-7-7-7-7-7-7--7-7-7-7-7-7-7----------------|
A|---------------------------------------------------------------|
E|---------------------------------------------------------------|


MAIN GUITAR solo

e|---------------------------------------------------------------|
B|----------------------------------12-10------------------------|
G|--12p11-11h12---------------------------12-11h12p11h12-11------|
D|--------------9-11/12-11-9-9-----------------------------------|
A|---------------------------------------------------------------|
E|---------------------------------------------------------------|

e|---------------------------------------------------------------|
B|---------------------------------------------------------------|
G|-11h12p11h12p11h12-11-9----------------------------------------|
D|------------------------12-11br(12)----------------------------|
A|---------------------------------------------------------------|
E|---------------------------------------------------------------|

e|--------------------------------9-10/12bh14--12br14--12-10-10-9-9-7-7---7--|
B|-----10-----------------------10--------------------------------------10---|
G|-11----------9/11---------9/11---------------------------------------------|
D|----9-------------12-9-12--------------------------------------------------|
A|---------------------------------------------------------------------------|
E|7--------------------------------------------------------------------------|

e|-------------------------|--14-14-14-14-12--------------------------|
B|----7-8/10-10--8-7-7-----|--15-15-15-15-14---*(19)r17-15-14h15p14---|
G|--9----------------------|------------------------------------------|
D|-------------------------|------------------------------------------|
A|-------------------------|------------------------------------------|
E|-------------------------|------------------------------------------|

*play the note already bended and then release to 17

e|---------------------------------------------------------------|
B|-----------------------------------------------------15p14br15-|
G|---16-14-14h16------------------------------------16-----------|
D|---------------14-17-16------------14-16-17-16-----------------|
A|------------------------14---14-17-------------14--------------|
E|---------------------------------------------------------------|

e|---------------------------------------------------------------|
B|-15-15/17\14--14-14\10-10/12-\7----15/17-17-19-17/19\17--------|
G|---------------------------------------------------------------|
D|-12-12/14\11--11-11\7---7/9--\4----12/14-14-16-14/16\14--------|
A|---------------------------------------------------------------|
E|---------------------------------------------------------------|

e|-----------------------------------------------------------------|
B|-----------------------------------12-14-14br15--10-10-10h12-----|
G|--------------------------------11----------------------------11-|
D|--12/14p12-14p12----12-14br15------------------------------------|
A|-----------------14----------------------------------------------|
E|-----------------------------------------------------------------|

e|--------------------------14h15p14-----------------------------|
B|---12----14----15---15/17-----------12-12----------------------|
G|-11---11----11----11-------------------------------------------|
D|---------------------------------------------------------------|
A|---------------------------------------------------------------|
E|---------------------------------------------------------------|

e|--------------------------10----12--------14-10-9br10--------------|
B|----------------------10-----10--------12--------------12-10h12----|
G|-12/14-12--9--9----11-11------------11-----------------------------|
D|-14/16-14-11-11h12-12----------------------------------------------|
A|-------------------------------------------------------------------|
E|-------------------------------------------------------------------|

e|--------14-14-15-15br17-14br15------------14-14-15br17-14br15--|
B|--12-12------------------------12-12---12----------------------|
G|---------------------------------------------------------------|
D|---------------------------------------------------------------|
A|---------------------------------------------------------------|
E|---------------------------------------------------------------|

e|--------------------12--------14-15-14-------------------------|
B|--14-12----15-12-------12--------------12------14----15-14-----|
G|--------11-------11-------11----------------11----11-------14--|
D|---------------------------------------------------------------|
A|---------------------------------------------------------------|
E|---------------------------------------------------------------|

e|---------------------------------------------------------------------|
B|-14-14h15p14------------------------------------------14-------------|
G|-14-14-------14-14h16-14-----11h12p11-----------------14-14-14h16----|
D|--------------------------------------12-----------------14-14-------|
A|-------------------------14--------------14-14\12/14-----------------|
E|---------------------------------------------------------------------|

e|-----14h15p14--15br17-14br15-------------------------------------|
B|-----------------------------12-12\10-12-------------------------|
G|-----------------------------------------------------------------|
D|-----------------------------------------------------------------|
A|-----------------------------------------------------------------|
E|-----------------------------------------------------------------|

e|-----------------------------14-14-14\12-12-12-12--------------|
B|-----12---12------12---------15-15-15\14-14-14-14-14(15)--12~--|
G|--11----0----11-9----9/11--------------------------------------|
D|---------------------------------------------------------------|
A|---------------------------------------------------------------|
E|---------------------------------------------------------------|


| /  slide up
| \  slide down
| h  hammer-on
| p  pull-off
| ~  vibrato
| +  harmonic
| x  Mute note
| br bend and release
| bh bend and hold
Tap to rate this tab
# A B C D E F G H I J K L M N O P Q R S T U V W X Y Z