Guitaretab - guitar tabs
Song name
# A B C D E F G H I J K L M N O P Q R S T U V W X Y Z

Buckethead - Spooner Arks tab

-----------------------------------------------------------------
Spooner Arks- Buckethead
-----------------------------------------------------------------
Tabbed by: jonathong56
Email: gl.jonathan@gmail.com

Tuning: Standard

e|-------------------------------------------------------------------------------|
B|-------------------------------------------------------------------------------|
G|-------------------------------------------------------------------------------|
D|----------3h4p3---3------------------------4-----------4-----------------------|
A|------2h5-------5---5-2-5-2---2------------------------------------------------|
E|--2h3-----------------------3---3----2-2-2---2-0-2-2-2---2---------------------|

e|----------------------|--------------------------------------------------------|
B|---5---------5--------|--------------------------------------------------------|
G|---6h7p6-----6h7p6----|----------9------9------9-------------------------------|
D|---------7---------7--|--------7------6------7---------------------------------|
A|-----------9----------|------9------7------9-----------------------------------|
E|----------------------|--------------------------------------------------------|
[ Tab from: http://www.guitaretab.com/b/buckethead/182114.html ]
e|----------------------|--------------------------------------------------------|
B|----------------------|--------------------------------------------------------|
G|--9--9-9-9-9--9--9----|--11----14-----14---------------------------------------|
D|--9--9-9-9-9--9--9----|--11----14-----14---------------------------------------|
A|--7--7-7-7-7--6--5----|--9-----12-----11---------------------------------------|
E|-----x-x-x-x----------|----x7-----x4-----x4------------------------------------|

e|----------------------------------------------------------------------------|
B|--9h10p9h10-9--9------------------------------------------------------------|
G|--9---------9--9--11-11-----------------------------------------------------|
D|------------------12-12-----------------------------------------------------|
A|----------------------------------------------------------------------------|
E|----------------------------------------------------------------------------|

e|------------|----------------------------------------------------------------|
B|-----12-----|------10/12-10-10-----------------------------------------------|
G|--------9---|------11/13-11-11-----------------------------------------------|
D|----------11|----------------------------------------------------------------|
A|--12--------|**--------------------------------------------------------------|
E|------------|----------------------------------------------------------------|

**- figureout the picking...but those are the notes

repeat the different parts throughout
listen to the song for timing and all that

| /  slide up
| \  slide down
| h  hammer-on
| p  pull-off
| ~  vibrato
| +  harmonic
Related for Spooner Arks tab
Advertisement will be closed in 10 seconds