Song name
# A B C D E F G H I J K L M N O P Q R S T U V W X Y Z

Buckethead - King James tab

tabbed by alexmaclean
email at alexmaclean1996@hotmail.com

this is all the guitar 1 parts from SlickNiK105 tab 
so you can play it by yourself
the only thing i changed was the intro cuz my guitar
only has 21 frets

Intro
e|-/21---21-21---------17---17----------------|
B|-------------19---19------------------------|
G|-----------------------------19-------------|  x2
D|-----------------------------------14-14----|
A|-----------------------------------------14-|
E|--------------------------------------------|

____________________________________________________________________________

e|-/21---21-21---------17---17----------------|
B|-------------19---19------------------------|
G|-----------------------------19-------------|
D|-----------------------------------14-14----|
A|-----------------------------------------14-|
E|--------------------------------------------|

e|-/21---21-21---------17---17----------------|
B|-------------19---19------------------------|
G|-----------------------------19-------------|
D|-----------------------------------14-14----|
A|-----------------------------------------14-|
E|--------------------------------------------|

e|-/21---21-21---------17---17----------------|
B|-------------19---19------------------------|
G|-----------------------------19-------------|
D|-----------------------------------14-14----|
A|-----------------------------------------14-|
E|--------------------------------------------|
                                            
e|-------------------------17-17-17-17-17-17-17---|
B|------------------------------------------------|
G|------------------------------------------------|
D|-------------------16/19------------------------|
A|-12-12-12-12-12/14------------------------------|
E|------------------------------------------------|      whole part
                                                             x2
____________________________________________________________________________

e|-------------9-------|---------------------|-------------9-------|
B|---------10----------|---------10----------|---------10----------|
G|---------------------|---------------------|---------------------|
D|-11--12--------------|-11--12--------------|-11--12--------------|
A|---------------------|---------------------|---------------------|
E|---------------------|---------------------|---------------------|


e|----------------------------|
B|------8-------------7-------|
G|----------9-------------7---|
D|----------------------------|
A|-7--7----------5--5---------|
E|----------------------------|     whole part
                                        x2

____________________________________________________________________________

e|-19----------------------|-------------------------|
B|----19-------------------|-------------------------|
G|-------19-18-16----------|----18-19----------------|
D|----------------14-16----|-16----------------------|
A|----------------------14-|(14)---------------------|
E|-------------------------|-------------------------|


e|-------------------------|-------------------------|
B|-------------------------|-------------15----14----|
G|-------14----12----11-12-|-------14-------------14-|
D|----12----12----12-------|----14-------------------|
A|-10----------------------|-12-------12----12-------|
E|-------------------------|-------------------------|   whole part
                                                             x2
____________________________________________________________________________

e|-----------------------|--------------------|----------------------|
B|-15-14-12--------------|--------------------|-14p12----------------|
G|----------11-----------|--------------------|-------11-------------|
D|-------------12-11-9-7-|-9-----11-----------|----------12-11-7---7-|
A|-----------------------|-----9--------------|------------------0---|
E|-----------------------|---7----------------|----------------------|

e|-----------------------|
B|-----------------------|
G|----------14-----------|
D|-11/12----11-----------|
A|(0)--------------------|
E|-----------------------|

____________________________________________________________________________

e|-21-21-21-------17\----|-------------------------|/21-21-21-------17-----|
B|----------19-19--------|-------------------------|----------19-19--------|
G|-------------------7-9-|9/11-----/14-14-12-11~~~-|-------------------7-9-|
D|-----------------------|-----9-9-----------------|-----------------------|
A|-----------------------|-------------------------|-----------------------|
E|-----------------------|-------------------------|-----------------------|

e|-----------------|-21-21-21-------17-10-12-|12/14-------17-17-15-14~~~-|
B|-----------------|----------19-19----------|------12-12----------------|
G|-7-6-7-----------|-------------------------|---------------------------|
D|-------7-7---7---|-------------------------|---------------------------|
A|-----------9-----|-------------------------|---------------------------| 
E|-----------------|-------------------------|---------------------------|

e|-21-21-21-------17-10-12-|12/14-14-14-17-15-14-14~~~-|
B|----------19-19----------|---------------------------|
G|-------------------------|---------------------------|
D|-------------------------|---------------------------|
A|-------------------------|---------------------------|
E|-------------------------|---------------------------|

____________________________________________________________________________

Guitar 1
e|------------------------------|--------------------------------|
B|-12--12--12-------------------|-12--10--12-/15--14--15--10~~~--|
G|-------------9h11-9--7--------|--------------------------------|
D|------------------------9--7--|--------------------------------|
A|------------------------------|--------------------------------|
E|------------------------------|--------------------------------|

e|------------------------------------|----------------------------------|
B|/12--12--12--10---------------------|-12---8---7h8-7~~~~~~---7---------|
G|-----------------11\9---9-9/11------|----------------------------------|
D|----------------------12--------9---|----------------------------------|x2
A|------------------------------------|----------------------------------|
E|------------------------------------|----------------------------------|
____________________________________________________________________________


e|---------------------------------|-------------10--9---10----------|
B|-12----------12--10--12----------|-12----------------------10~~~---|
G|---------11--------------9---11--|---------11----------------------|
D|-----9---------------------------|-----9---------------------------|
A|---------------------------------|---------------------------------|
E|---------------------------------|---------------------------------|

e|---------------------------------|---------------------------------|
B|-12----------12--10--12---------10h12--10----------------------10--|
G|---------11--------------9---11--|----------------/11------11------|
D|-----9---------------------------|---------14--12------9-----------|
A|---------------------------------|---------------------------------|
E|---------------------------------|---------------------------------|

e|---------------------------------|-------------10--9---10----------|
B|-12----------12--10--12----------|-12----------------------10~~~---|
G|---------11--------------9---11--|---------11----------------------|
D|-----9---------------------------|----9----------------------------|
A|---------------------------------|---------------------------------|
E|---------------------------------|---------------------------------|


e|---------------------------------|---------------------------------|
B|-12----------12--10--12----------|---------------------------------|
G|---------11--------------9---11--|-9-------9h11----6b==7r==6-------|
D|-----9---------------------------|---------------------------------|
A|---------------------------------|---------------------------------|
E|---------------------------------|---------------------------------|
____________________________________________________________________________

Guitar 1
e|-------------------|-------------------|-------------------------|
B|-----10-7-----8-7--|-----10-7-----8-7--|-------10-------10-------|
G|---7--------7------|---7--------7------|----7--------------11~~~-|
D|-9--------9--------|-9--------9--------|-9--------11-12----------|
A|-------------------|-------------------|-------------------------|
E|-------------------|-------------------|-------------------------|


____________________________________________________________________________

use octave higher effect

e|---------------------------------|---------------------------------|
B|-----------------14--------------|-15--------------17--------------|
G|-11------------------------------|---------------------------------|
D|-------------11------11------12--|-----12------14------14----------|
A|-----9---------------------------|---------------------------------|
E|---------------------------------|---------------------------------|

e|---------------------------------|---------------------------------|
B|-14------------------------------|---------------------------------|
G|-----------------11--------------|-14------------------------------|
D|-----11--------------------------|-----------------12--------------|
A|-------------9-------9-------12--|-----12--------------------------|
E|---------------------------------|-------------10------10----------|
____________________________________________________________________________


e|-----------------------|--------------------|----------------------|
B|-15-14-12--------------|--------------------|-14p12----------------|
G|----------11-----------|--------------------|-------11-------------|
D|-------------12-11-9-7-|-9-----11-----------|----------12-11-7---7-|
A|-----------------------|-----9--------------|------------------0---|
E|-----------------------|---7----------------|----------------------|

e|-----------------------|
B|-----------------------|
G|----------14-----------|
D|-11/12----11-----------|
A|(0)--------------------|
E|-----------------------|

____________________________________________________________________________

wah pedal
e|-----------------------|------------------------|-----------------------|
B|-----------------------|------------------------|-----------------------|
G|-----------------------|---------7--6--7--------|-----------------------|
D|-9---------------------|------------------7-----|-9---------------------|
A|----9-----------7----9-|------9-----------------|----9-----------7----9-|
E|-------7--10-----------|---7--------------------|-------7--10-----------|

e|------------------------|-----------------------|------------------------|
B|------------------------|-----------------------|------------------------|
G|------------------------|-----------------------|----------7--6--7-------|
D|------7-----5--4--------|-9---------------------|-------------------7----|
A|------------------5-----|----9-----------7----9-|(9)----9----------------|
E|---5-----3--------------|-------7--10-----------|----7-------------------|

e|-----------------------|-----------------------|------------------------|
B|-----------------------|-----------------------|/12---------------------|
G|-----------------------|-----------------------|----11----------9----11-|
D|-9---------------------|-------7-----5--4------|-------9--12------------|
A|----9-----------7----9-|(9)----------------5---|------------------------|
E|-------7--10-----------|----5-----3------------|------------------------|

e|----------10-9--10------|-----------------------|------------------------|
B|-------------------10---|-12--------------------|-------10----8--7-------|
G|(11)---11---------------|----11----------9---11-|(11)---------------7----|
D|----9-------------------|-------9--12-----------|----7-----5-------------|
A|------------------------|-----------------------|------------------------|
E|------------------------|-----------------------|------------------------|

e|-----------------------|----------10-9--10------|------------------------|
B|-12--------------------|-------------------10---|-12---------------------|
G|----11----------9---11-|(11)---11---------------|----11----------9----11-|
D|-------9--12-----------|----9-------------------|-------9--12------------|
A|-----------------------|------------------------|------------------------|
E|-----------------------|------------------------|------------------------|

e|------------------------|/19--------------------|----------22-21-22-17---|
B|-------10----8--7-------|----19---------17---19-|(19)---19---------------|
G|(11)---------------7----|-------16-19-----------|----16------------------|
D|----7-----5-------------|-----------------------|------------------------|
A|------------------------|-----------------------|------------------------|
E|------------------------|-----------------------|------------------------|

e|-19--------------------|-------17----15-14------|/19--------------------|
B|----19---------17---19-|(19)---------------15---|----19---------17---19-|
G|-------16-19-----------|----14----12------------|-------16-19-----------|
D|-----------------------|------------------------|-----------------------|
A|-----------------------|------------------------|-----------------------|
E|-----------------------|------------------------|-----------------------|

e|----------22-21-22-17---|-19--------------------|-------17----15-14------|
B|(19)---19---------------|----19---------17---19-|(19)---------------15---|
G|----16------------------|-------16-19-----------|----14----12------------|
D|------------------------|-----------------------|------------------------|
A|------------------------|-----------------------|------------------------|
E|------------------------|-----------------------|------------------------|
____________________________________________________________________________

e|---------------------------------|---------------------------------|
B|-12------15--14-(15)rb14-10--12--|(12)-----15--14-(15)rb14-10--12--|
G|---------------------------------|---------------------------------|
D|---------------------------------|---------------------------------|
A|---------------------------------|---------------------------------|
E|---------------------------------|---------------------------------|

e|---------------------------------|---------------------------------|
B|(12)-----15--14-(15)rb14-10--12--|(12)-----15--14-(15)rb14-10--12~-|
G|---------------------------------|---------------------------------|
D|---------------------------------|---------------------------------|
A|---------------------------------|---------------------------------|
E|---------------------------------|---------------------------------|

That thing on the B string that looks like this "(15)rb14" means you have 
to bend the 14th fret up a half step, THEN strum the note and release the 
bend.  Thus the name "release bend".  You'll get it if you listen to the 
song.  


| /     slide up
| \     slide down
| h     hammer-on
| p     pull-off
| ~     vibrato
| +     harmonic
| x     Mute note
| x\    pick scrape
|(#)rb# release bend
============================================================================
Tap to rate this tab
# A B C D E F G H I J K L M N O P Q R S T U V W X Y Z