Song name
# A B C D E F G H I J K L M N O P Q R S T U V W X Y Z

Buckethead - Covert tab

Alright, here's how I play this song. Standard tuning.

play this part 4 times, lightly palm muted.
E----------------------------------------------------------|
B----------------------------------------------------------|
G---------------6-------------5-6-5------------------------|
D------8------6---6-----8---6------------------------------|
A----8---8--9---------8---8--------------------------------|
E--6----------------6--------------------------------------|

same here.
E-----x-x---------x-x---------x-x--------------------------|
B-----x-x---------x-x---------x-x--------------------------|
G-----x-x---------x-x---------x-x--------------------------|
D-3-3-x-x-----3-3-x-x-----1-1-x-x-----4-4------------------|
A-1-1-x-x-1/4-4-4-x-x-4\3-3-3-x-x-3/6-6-6------------------|
E-----x-x---------x-x---------x-x--------------------------|


And that's pretty much it.
Tap to rate this tab
# A B C D E F G H I J K L M N O P Q R S T U V W X Y Z