Guitaretab - guitar tabs
Song name
# A B C D E F G H I J K L M N O P Q R S T U V W X Y Z

Buckethead - Callbox tab

-------------------------------------------------------------------------------
			     Callbox - Buckethead 
-------------------------------------------------------------------------------
Tabbed by:HARDROCKER12345

Tuning: Half Step Down

eb|----------------------------------------------------------------------| x2
Bb|-------------------------------------------------------------------------------|
Gb|---9---9---9---9---9---9---9---9---9-------------------------------------------|
Db|-9---9---9---9---9---9---9---9---9---------------------------------------------|
Ab|-------------------------------------9---9---9---9--------12---12----12----12--|
Eb|-----------------------------------7----7---7---7------10----10----10---10-----|

eb|------------------------------------|
Bb|------------------------------------|
Gb|-9-9-9-9-9--7-7-7-7-7--9-9-9-9-9----|
Db|-9-9-9-9-9--7-7-7-7-7--9-9-9-9-9----| 
Ab|-7-7-7-7-7--5-5-5-5-5--7-7-7-7-7----|
Eb|------------------------------------|

eb|--------------------------------|  x2
Bb|--------------------------------|
Gb|--------------------------------|
Db|---7-9p6---7b---7-9p6---6/7-----|
Ab|--9-------9----9------9---------|
Eb|-9-------9----9------9----------|

eb|---------------------------------------------------|  x2
Bb|---------------------------------------------------|
Gb|---------------------------------------------------|
Db|-9------------9----9---9------------7--9-----------|
Ab|-9-10--7--10--9-10-9---9-10--7--10--7--9--10-------|
Eb|-7-10--7--10--7-10-7---7-10--7--10--5--7--10-------|
Eb|---8---5---8----8--------8---5--8---------8--------|

MISSING SHORT RIFF

eb|12-12-12-12-12-12-12-12-12-12-12-12-12-12-12-12-12-12-12-12-12-12-12-12-12-12/24-| 
Bb|---------------------------------------------------------------------------------|
Gb|---------------------------------------------------------------------------------|
Db|---------------------------------------------------------------------------------|
Ab|---------------------------------------------------------------------------------|
Eb|---------------------------------------------------------------------------------|

eb|-------------------------------------------------------------------------------| 
Bb|-------------------------------------------------------------------------------|
Gb|---9---9---9---9---9---9---9---9---9-------------------------------------------|
Db|-9---9---9---9---9---9---9---9---9---------------------------------------------|
Ab|-------------------------------------9---9---9---9--------12---12----12----12--|
Eb|-----------------------------------7----7---7---7------10----10----10---10-----|
[ Tab from: http://www.guitaretab.com/b/buckethead/183717.html ]
eb|------------------------------------|
Bb|------------------------------------|
Gb|-9-9-9-9-9--7-7-7-7-7--9-9-9-9-9----|
Db|-9-9-9-9-9--7-7-7-7-7--9-9-9-9-9----| 
Ab|-7-7-7-7-7--5-5-5-5-5--7-7-7-7-7----|
Eb|------------------------------------|

eb|----11b-11b-------11b-11b---| x7
Bb|----------------------------|
Gb|----------------------------|
Db|----------------------------|
Ab|----------------------------|
Eb|2/10---------2/10-----------|

THEN

eb|----11b-11b-11b-11b-11b-----|
Bb|----------------------------|
Gb|----------------------------|
Db|----------------------------|
Ab|----------------------------|
Eb|2/10------------------------|

MISSING SHORT RIFF

eb|-----------------|  x17
Bb|-----------------|
Gb|-----------------|
Db|-4--4--5--3------|
Ab|-4--4--5--3------|
Eb|-2--2--3--1------|

MISSING SHORT RIFF

e|------------------------------------------------|
B|------------------------------------------------|
G|-6p4-----4----6p4------4---6p4-----4----9-9-9---|
D|-----4h6---------4h6-----------4h6------9-9-9---|
A|-----------7-------------------------7--7-7-7---|
E|------------------------------------------------|

e|--------------------------------------------------|
B|--------------------------------------------------|
G|-6p4-----4----6p4------4---6p4-----4----9-9-9---6-|
D|-----4h6---------4h6-----------4h6------9-9-9---6-|
A|-----------7-------------------------7--7-7-7---4-|
E|--------------------------------------------------|

eb|---------------------------------------------------|
Bb|---------------------------------------------------|
Gb|---------------------------------------------------|
Db|---------------------------------------------------|
Ab|---------------------------------------------------|
Eb|-1b1b-----1b-----1b---1b-----1b---1b1b-1b1b-----|

eb|---------------|  x3
Bb|---------------|
Gb|-6/7---7/6-----|
Db|-6/7---7/6-----|
Ab|-4/5---5/4-----|
Eb|---------------|

eb|----------------------------------------------|  x2
Bb|----------------------------------------------|
Gb|----------------------------------------------|
Db|-6-6-6-6--8/6/4/6---------2--2--2--2--2--2----|
Ab|-6-6-6-6--6/4/2/4---4--4--2--2--2--2--2--2----|
Eb|-4-4-4-4------------2--2----------------------|

eb|------------------------------| Play until end
Bb|------------------------------|
Gb|------------------------------|
Db|-----6----9--8-6------6-------|
Ab|---6----------------6---------|
Eb|-4----------------4-----------|


| /  slide up
| \  slide down
| h  hammer-on
| p  pull-off
| ~  vibrato
| +  harmonic
| x  Mute note
===============================================================================
Related for Callbox tab