Song name
# A B C D E F G H I J K L M N O P Q R S T U V W X Y Z

Buckethead - Pure Imagination tab

Tuning:Standard

e|---------------------------------------------------------------------------|
B|-----------------------------7-8-7-8-7-8-7---------------------------------|
G|------7-----7----7----7--------------------8-------------------------------|
D|----5-----5----5----5----5-------------------------------------------------|
A|--7-----7----7----7----7---------------------------------------------------|
E|---------------------------------------------------------------------------|

e|------------------------------------------------------------------------------------|
B|------------------------------------------------------------------------------------|
G|------4-5-7-4-2-0-------------------------------------------------------------------|
D|----5--------------4-5-4-5-4-5-4----------------------------------------------------|
A|--7------------------------------5--------------------------------------------------|
E|------------------------------------------------------------------------------------|

============================================================================
Tap to rate this tab
 
# A B C D E F G H I J K L M N O P Q R S T U V W X Y Z