Song name
# A B C D E F G H I J K L M N O P Q R S T U V W X Y Z

Buckethead - Big Ds Touch tab

Buckethead
Song: Big D's Touch
Album: A Real Diamond In The Rough
Tabbed by: Bobong94


Standard Tuning

Intro x4 (0:00-0:26)
|--------------------------------------------|
|-----1h3p1----------------------------------|
|--3-----------3------2---3-----0------2---3-|
|--3--------------3---3---------3------3-----|
|--1----------------------------1------------|
|--------------------------------------------|

Part1
x2(0:27-0:54)
|---------------------------------------------------------------------|
|---------------------------------------------------------------------|
|--3-3-3-3---3-3-3-3---3-3---3-3-3-3---3-3-3-3---3-3---2-3-0---2-3-0--|
|--3-3-3-3---3-3-3-3---3-3---3-3-3-3---3-3-3-3---3-3---3-3-3---3-3-3--|
|--1-1-1-1---1-1-1-1---1-1---1-1-1-1---1-1-1-1---1-1---1-1-1---1-1-1--|
|---------------------------------------------------------------------|
                                            ^Listen for strumming pattern here^

Part2
x8(0:55-1:22) (Ghost note every forth time)
|--------3--------------------------------|
|--------3------------------1-------------|
|--------3-------2h3---3-------3p2p(0)----|
|----------------3------------------------|
|----5------------------------------------|
|--3--------------------------------------|

(1:22-1:35)
Intro x2

Part 3
x2(1:36-2:02)
|------------------------------------------------------------------------|
|------11-10-----------------------------------11-10---------------------|
|--7------------10h-12-10-------------------7---------10h-12-10----------|
|--------------------------10-8-----------------------------------10-8---|
|------------------------------------------------------------------------|
|------------------------------------------------------------------------|

|----------------------------------------------------|
|-----11-10------------------------------------------|
|--7-----------10h--12-10-----------7h8p7-7--7h8p7-7-|
|--------------------------10-8----------------------|
|----------------------------------------------------|
|----------------------------------------------------|

Part 4
x8(2:03-2:30)
|--6--6-6p5--3--------|
|--3-------------6-8--|
|--3------------------|
|---------------------|
|---------------------|
|---------------------|

Part 5
x2(2:30-2:58)
|--------------------------------------------------------------------------|
|--------------------------------------------------------------------------|
|---7-7-------10-10----------7-7-7-------10-10-----------5-5-5-------10-10-|
|--------8-8------------------------8-8-------------------------8-8--------|
|--------------------------------------------------------------------------|
|--------------------------------------------------------------------------|

|--------------------------------------------------------------------------|
|--------------------------------------------------------------------------|
|-5-5-5-------10-10----------------------10-10-----------------------10-10-|
|--------8-8-----------------7-7-7--8-8------------------7-7-7--8-8--------|
|--------------------------------------------------------------------------|
|--------------------------------------------------------------------------|

|-------------------------------------------------------|
|-------------------------------------------------------|
|------------------10-10------------------------10-10---|
|-10-10-10---8-8---------------10-10-10---8-8-----------|
|-------------------------------------------------------|
|-------------------------------------------------------|


(2:58-3:52)
Part 3 x4


(3:53-4:07)
Intro x2
Tap to rate this tab
# A B C D E F G H I J K L M N O P Q R S T U V W X Y Z