Guitaretab - guitar tabs
Song name
# A B C D E F G H I J K L M N O P Q R S T U V W X Y Z

Buckethead - For Mom tab

Buckethead
For Mom (Early Version)
Acoustic Shards
[Tune ˝ step down]

This is what I got, from what I hear Buckethead playing.  
I didn’t see a really good Acoustic Shard’s version out there, so I did one myself.  
I hope you like it!  
If anyone has any corrections, please P.M. me or post it as a comment/correction.
Enjoy!



Intro
D#||---------0---------|---------0---------|-----------------|---------0---------|
A#||-------2---2-------|-------1---1-------|---------0-----1-|-------2---2-------|
F#||-----2-------2-----|-----2-------2-----|-------0-----2---|-----2-------2-----|
C#||---2-----------2---|---2-----------2---|-----3-----------|---2-----------2---|
G#||-0---------------0-|-0---------------0-|---3-------------|-0---------------0-|
D#||-------------------|-------------------|-1---------------|-------------------|

||-------3-----------3-----|---------||-----3-(3)-||
||-----0---0-------0---0---|---------||----0—-(0)-||
||---2-------2---2-------2-|---0---0-||---2---(2)-||
||-2-----------------------|---------||--2----(2)-||
||-0-----------0-----------|---------||-0-----(0)-||
||-------------------------|-3---3---||-----------||

The Idea of What Buckethead is doing.
||-----0------------0------------0-|-------0-----------0-----------0-|
||---8---8--------8---8--------8---|-----8---8-------8---8-------8---|
||-9-------9----9-------9----9-----|---7-------7---7-------7---7-----|
||-----------10-----------10-------|-9-----------9-----------9-------|
||---------------------------------|------------10----------10-------|
||---------------------------------|---------------------------------|
[ Tab from: http://www.guitaretab.com/b/buckethead/185192.html ]
|------------------0-----------0-|--------0-------|-------0-----------0-||-0-|
|----6-8-6-------6---6-------6---|------6---6-----|-----8---8-------8---||-6-|
|--5-------5---5-------5---5-----|----5-------5---|---7-------7---7-----||-5-|
|7-----------7-----------7-------|--7-----------7-|-9-----------9-------||-7-|
|-----------(8)---------(8)------|-(8)------------|---------------------||-8-|
|--------------------------------|----------------|---------------------||---|

Interlude Thingy
|---------------|-------------0------0-|
|-------1-------|-----------1---1----1-|
|-----2---2-----|---------2-------2--2-|
|---2-------2---|-------2----------2-2-|
|-0-----------0-|-0---0--------------0-|
|---------------|(0)-------------------|

Strum Like Buckethead.
 |-C#---|-B----|-A----|-B----|
||-0----|-0----|-0----|-0----||
||-5----|-0----|-0----|-0----||
||-6----|-4----|-2----|-4----||
||-6----|-4----|-2----|-4----||
||-4----|-2----|-0----|-2----||
||------|------|------|------||

The Idea of what he is doing here.
||----|----------------------|-------------------4-|------------||-----|
||-12-|-12-9-10-10h12---10-9-|-7---9-7---4-5-5h7---|-5---0------||-0---|
||----|----------------------|---------------------|---------1--||-1---|
||----|----------------------|---------------------|--------(2)-||-2---|
||----|----------------------|---------------------|--------(2)-||-2---|
||-0--|----------------------|-7-------------------|-5------(0)-||-0---|

Tremolo Pick 12 (B) while Palm Muting and gradually slide down the string.
|-----------------|-|
|-12tpxxxxxx-12\0-|-|
|-----------------|-|
|-----------------|-|
|-----------------|-|
|-----------------|-|


Related for For Mom tab