Song name
# A B C D E F G H I J K L M N O P Q R S T U V W X Y Z

Buckethead - This Is Halloween tab

NOTE: to do the intro you have to use your fingers...
If there's any mistakes please correct me, I'm tabbing this out just by watching
e|-7--7--7--7-8-5--5--5--5-8-7--7--7--10-8-7-5--5--5--5-7-8-3-3------------|
B|-8--8--8--8-8-7--7--7--7-8-8--8--8---------------------------------------|
G|-------------------------------------------------------------------------|
D|-------------------------------------------------------------------------|
A|-------------------------------------------------------------------------|
E|-0--0--0--0-0-0--0--0--0-0-0--0--0---------------------------------------|

e|-------------------------------------------------------------------------|
B|-------------------------------------------------------------------------|
G|-------------------------------------------------------------------------|
D|-------------------------------------------------------------------------|
A|-5-5-5p4p2-5-5-5p4p2-5-0-0-------2-3-------------------------------------|
E|-3-3-------3-3-------------3-2-0-------------------------------(x2)------|

e|-------------------------------------------------------------------------|
B|-------------------------------------------------------------------------|
G|-------------------------------------------------------------------------|
D|-------------------------------------------------------------------------|
A|-7-7-7p6p4-7-7-7p6p4-7-2-2-------4-5-------------------------------------|
E|-4-4-------4-4-------------5-4-2-------------------------------(x2)------|
Okay this is where the tapping starts. I've only found out about half so once I 
find out more I'll update...

e|-7----7---7--7---8-------8------8----8---6----6----6--6---5----5-----5---|
B|-------------------------------------------------------------------------|
G|--9-9--9-9--9--9---10-10--10-10---10---10--8-8--8-8--8--8---7-7--7-7---7-|
D|-------------------------------------------------------------------------|
A|-------------------------------------------------------------------------|
E|-2-----------------------------------------------------------------------|

e|-5---7-----7-----7---7---8-------8-------8----8----6-----6----6----6---5-|
B|-------------------------------------------------------------------------|
G|---7---9-9---9-9---9---9---10-10---10-10---10---10---8-8---8-8---8---8---|
D|-------------------------------------------------------------------------|
A|-------------------------------------------------------------------------|
E|-----5-------------------------------------------------------------------|

e|-----5-----5---5---------------------------------------------------------|
B|-------------------------------------------------------------------------|
G|-7-7---7-7---7---7-------------------------------------------------------|
D|-------------------------------------------------------------------------|
A|-------------------------------------------------------------------------|
E|-------------------------------------------------------------------------|
Tap to rate this tab
# A B C D E F G H I J K L M N O P Q R S T U V W X Y Z