Song name
# A B C D E F G H I J K L M N O P Q R S T U V W X Y Z

Buckethead - Pure Imagination tab

e|12--13--14-----------------------------------------------------------------|
B|---------------------------------------------------------------------------|
G|----------------7--7-----11-12-11-12-11----------4-5-7-4-------------------|
D|--14--15--17---5--5--5------------------12----5----------7-5-4-5-4-5-4-----|
A|--------------7--7--7----------------------7---------------------------5---|
E|-----------------------0---------------------------------------------------|

e|-3-5-3-5-3-2-------------------2-2-3-2-3-2--0-0-2-0-2-0--0-2-3-4-5---------|
B|------------3--0-1-0-1-0--0-3--2----------2-0------------------------------|
G|-------------4----------0------3------------4-------------2-4-5-6-7--------|
D|-------------------------------4------------4------------------------------|
A|-3-------------0----------3-----------------2------------------------------|
E|---------------------------------------------------------------------------|

Tap to rate this tab
# A B C D E F G H I J K L M N O P Q R S T U V W X Y Z