Song name
# A B C D E F G H I J K L M N O P Q R S T U V W X Y Z

Buckethead - Forgotten Trail tab

-------------------------------------------------------------------------------
			     FORGOTTEN TRAIL - Buckethead
-------------------------------------------------------------------------------
Tabbed by: Jeff
Email:jeffreymenke@yahoo.com

Tuning:Standard

e|------------------------------------------------------------------|
B|------------------------------------------------------------------|
G|-------18--16-16--------------------------------------------------|
D|-----------------19-19-19----18-18--19---14-----------------------|
A|------------------------------------------------------------------|
E|------------------------------------------------------------------|

e|--------------------------------------------------------------------|
B|--------------------------------------------------------------------|
G|-19-21-----19-18-19-18----18--16-16---------------------------------|
D|--------------------------------------19-19---18-18--14--16---------|
A|--------------------------------------------------------------------|
E|--------------------------------------------------------------------|

e|--------------------------------------------------------------------|
B|-----------------------19-------------------------------------------|
G|--21---19-18-18---21--------18-18-----------------------------------|
D|------------------------------------18-18-19--21-21--19-18-18-------|
A|--------------------------------------------------------------------|
E|--------------------------------------------------------------------|

e|--------------------------------------------------------------------|
B|--------------------------------------------------------------------|
G|----------------------------------------------21-21--19-19--18-18-18|
D|------14---14----16------------18-18-16-18--------------------------|
A|--------------------------------------------------------------------|
E|--------------------------------------------------------------------|

e|--------------------------------------------------------------------|
B|--------------------------------------------------------------------|
G|---16-18--14-14---16-16---13-13--9---11-----11-11------11-----11----|
D|--------------------------------------------------------------------|
A|--------------------------------------------------------------------|
E|--------------------------------------------------------------------|


| /  slide up
| \  slide down
| h  hammer-on
| p  pull-off
| ~  vibrato
| +  harmonic
| x  Mute note
===============================================================================

Tap to rate this tab
# A B C D E F G H I J K L M N O P Q R S T U V W X Y Z