Song name
# A B C D E F G H I J K L M N O P Q R S T U V W X Y Z

Buckethead - Nightmare Before Christmas tab

From the Buckethead youtube video

This Is Halloween
clean, finger picked, almost all notes staccato

e--7-7-7--7--7-8--5-5----5-5-5--5--5-7-8-7--7-7-7-8-10---8-7-5-|
B--8-8-8--8--8-8--7-7----7-7-7--7--7-8-8-8--8-8-8--------------|
G--------------------------------------------------------------|
D--------------------------------------------------------------|
A--------------------------------------------------------------|
E--0-0-0--0--0-0--0-0----0-0-0--0--0-0-0-0--0-0-0--------------|

e--5-5-5-5-7-8--3-3--------------------------------------------|
B--------------------------------------------------------------|
G--------------------------------------------------------------|
D--------------------------------------------------------------|
A---------------------5-5-5-4-2--5-5-5-4-2-5-0-0-------2-3~----|
E---------------------2---2---2--2---2---2-------3-2-0---------|

e--------------------------------------------------------------|
B--------------------------------------------------------------|
G--------------------------------------------------------------|
D--------------------------------------------------------------|
A--7-7-7-6-4--7-7-7-6-4-7-2-2------4-5-------------------------|
E--4---4---4--4---4---4-------5-4-2----------------------------|


Theme from Halloween
Distorted, all notes on 1st and 2nd strings (e,B) are fretting hand taps, all notes on 
string (E)are picking hand taps

e--9-----9----9---10---9-----9-----9---10---8-----8-----8---9---|
B----7-7--7-7---7----7---7-7---7-7---7----7---6-6---6-6---6---6-|
G---------------------------------------------------------------|
D---------------------------------------------------------------|
A---------------------------------------------------------------|
E--2-------------------5--------------------9-------------------|

e--8-----8-----8---9----|
B----6-6---6-6---6---6--|
G-----------------------|   repeat
D-----------------------|
A-----------------------|
E--1--------------------|
Tap to rate this tab
# A B C D E F G H I J K L M N O P Q R S T U V W X Y Z