Song name
# A B C D E F G H I J K L M N O P Q R S T U V W X Y Z

Buckethead - The Homing Beacon tab

Tabbed by: James Sicardi
Buckethead: the Homing Beacon: Whole Song Tab

-------14h15----14---14-------------------------------------------|
----15--------15---15---15----------------------------------------|
-12---------------------------------------------------------------|
------------------------------------------------------------------|
------------------------------------------------------------------|
------------------------------------------------------------------|

---7p5-7-----5p3-5------7p5-7-----5p3-5-----8h10p8-10----8h10p8-10|
----------------------5-------------------------------------------|
----------------------5-------------------0------------0----------|
-5---------5----------5----------5--------------------------------|
------------------------------------------------------------------|
------------------------------------------------------------------|

---7h8p7-7----5h7p5-7------3h5p3-5----2h3p2-3---------5h7p5-7-----|
------------------------------------------------------------------|
-0---------0-----------0-------------0--------------0-------------|
------------------------------------------------------------------|
------------------------------------------------------------------|
------------------------------------------------------------------|

---3h5p3-5----5h7p5-7----8h10p8-10-----8h10p8-10---7h8p7-8--------|
------------------------8------------8----------------------------|
-0---------0-----------0-------------0-----------0----------------|
------------------------------------------------------------------|
------------------------------------------------------------------|
------------------------------------------------------------------|

---5h7p5-7----3h5p3-5----2h3p2-3-------------------------------------|
-------------------------------------13-15-13-15-13----13-15-13-15-13|
-0---------0-----------0-----------0-----------------0---------------|
---------------------------------------------------------------------|
---------------------------------------------------------------------|
---------------------------------------------------------------------|

---------------------------------------------------------------------|
---12-13-12-13-12-----10-12-10-12-10-------13-15-13-15-13------------|
-0------------------0--------------------0---------------------------|
---------------------------------------------------------------------|
---------------------------------------------------------------------|
---------------------------------------------------------------------|

---------------------------------------------------------------------|
---13-15-13-15-13-----12-13-12-13-12-------12-10-12-10-12------------|
-0------------------0--------------------0---------------------------|
---------------------------------------------------------------------|
---------------------------------------------------------------------|
---------------------------------------------------------------------|

---------------------------------------------------------------------|
---8-10-8-10-8--------8-10--8--10--7~--------------------------------|
-0------------------0------------------------------------------------|
---------------------------------------------------------------------|
---------------------------------------------------------------------|
---------------------------------------------------------------------|

------------------------|--------------------------|-----------------|
-5h6p5---8--7--6--5-----|--------------------------|-----------------|
------------------------|---4h5p4---7--6--5--4h5---|-----------------|
-5-----5--5--5--5-------|---0------0--0--0--0------|-----------------|
------------------------|--------------------------|-----------------|
----------x2------------|-------------x2-----------|-----------------|

----------------------------------------------------------------------|
----------------------------------------------------------------------|
--5----7----6----5----4-----------------------------------------------|
---3----3----3----3---------------------------------------------------|
-3----3----3----3----3------------------------------------------------|
----------------------------------------------------------------------|
^2:30

------------------------|--------------------------|-----------------|
-5h6p5---8--7--6--5-----|--------------------------|-----------------|
------------------------|---4h5p4---7--6--5--4h5---|-----------------|
-5-----5--5--5--5-------|---0------0--0--0--0------|-----------------|
------------------------|--------------------------|-----------------|
----------x2------------|-------------x2-----------|-----------------|

---------------------------------------------------------------------|
-7----5s7-7--8-8---8p7--7--8-8----7---------------------7h8p7--------|
------------------------------------7--------------------------7-----|
---------------------------------------9-----9-9h11--------------7---|
---------------------------------------------------------------------|
---------------------------------------------------------------------|
^3:11

---------------------------------------------------------------------|
-7--8-8----7h8p7-------------------------9s12---7--8---8-7----7------|
-----------------7------7--------------7--------------7-----7---9----|
--------------------9-------5s7--9-----------------------------------|
---------------------------------------------------------------------|
---------------------------------------------------------------------|
^3:23

---------------------------------------------------------------------|
-------7-----8-7-7--------------10h12p10h12----7~-----10h12p10h12----|
--9------9-----------4s7---------------------------------------------|
-9-9--------------------------12---------------------12--------------|
---------------------------------------------------------------------|
---------------------------------------------------------------------|
^3:47

---------------------------------------------------------------------|
-7~-----10h12p10h12-----7~------10---12------------------------------|
----------------------------------------12-12-----7~-----------------|
------12----------------------12-----------------------7~------------|
---------------------------------------------------------------------|
---------------------------------------------------------------------|
^4:03

---------------------------------------------------------------------|
--8---7--------8--10s12s13--12-----------8-10-12--s15-15~--17-12-----|
-8------7----9-----------------9-9-----9-----------------------------|
-------------------------------------7-------------------------------|
---------------------------------------------------------------------|
---------------------------------------------------------------------|
^4:13

------------------------------------------------------------------------|
----------------10h11-10------------------------------------------------|
---9-11--11-12-----------12--11-12-11-12--------------------------------|
-9-----------------------------------------12---12h14-12----10--10h12-9~|
------------------------------------------------------------------------|
------------------------------------------------------------------------|
^4:26

-----14h15-14-----------------15-14---------------------15-14-----------|
-------------15----------------------15-13-12---------------------------|
------------------17-16~-------------------------11s12------------------|
-9~----------------------------------------------------------12---------|
------------------------------------------------------------------------|
------------------------------------------------------------------------|
^4:34

----------------------------------------------------------------------|
10-10-12--------------------------------------------------------------|
----------11b(1/2)-------------------12h14p12p11~---11s12s11----------|
------------------------19b(1/2)--------------------8-s9-s8-----------|
----------------------------------------------------------------------|
----------------------------------------------------------------------|
^4:56

----------------------------------------------------------------------|
-17-17-17-15-15~--------12~-----------------17~-----------------------|
--------------------14-----------------16-14----------------16-14-----|
--------------------11--------9s16~--14------------9s16~-14-----------|
----------------------------------------------------------------------|
----------------------------------------------------------------------|
^5:03

-----------------------------|-17-17-17-17-15-15-15--14-14-14--15-15~|-x2|
----12---17~---15-17-17~-----|---------------------------------------|---|
-14--------------------------|---------------------------------------|---|
-----------------------------|---------------------------------------|---|
-----------------------------|---------------------------------------|---|
-----------------------------|---------------------------------------|---|
^5:18

-17-17-15-15--14h15p14--14-15-15---14-14h15----------------------------|
--------------------------------------------15-12---15h17--15-12-------|
-----------------------------------------------------------------------|
-----------------------------------------------------------------------|
-----------------------------------------------------------------------|
-----------------------------------------------------------------------|
^5:35

------------------------------0---0------------------------------------|
------------------------------3---0------------------------------------|
-11-12-11h12p11h12p11---------4---2-(chords he plays at the end)-------|
------------------------------2---0------------------------------------|
------------------------------3---3-----------------------------------7|
-----------------------------------------------------------------------|
^5:45
Tap to rate this tab
# A B C D E F G H I J K L M N O P Q R S T U V W X Y Z