Song name
# A B C D E F G H I J K L M N O P Q R S T U V W X Y Z

Buckethead - Dawn Appears tab

-------------------------------------------------------------------------------
			     Buckethead - Dawn Appears
-------------------------------------------------------------------------------
Tabbed by: slyo
Email: sylvester.o@gmail.com

Tuning: Down 1/2 Step (Eb Ab Db Gb Bb eb)

eb|-------7p6--------------------0-----------|
Bb|-----------9-----7h9-7--------0-0---------|
Gb|-----8---------8-----------9------9\8-----|
Db|---6-----------------------9--------------|
Ab|---------------------------7--------------|
Eb|------------------------------------------|

eb|--------------------------|
Bb|-----2----------0---------|
Gb|--3-----3---\1----1-------|
Db|--4---------\2------2-----|
Ab|--4---------\2--------2---|
Eb|--------------------------|

eb|--------------------------------------|
Bb|---------0--------------0-----0---0---|
Gb|--1---1------------3------------------|
Db|----4---------4-----------------4-----|
Ab|----------------------------7---------|
Eb|--------------------------------------|

eb|------7----------------------------0------------|
Bb|----7----11---9-------7h9--7-------0--0---------|
Gb|--8---------------8-------------9-------9\8-----|
Db|--------------------------------9---------------|
Ab|--------------------------------7---------------|
Eb|------------------------------------------------|

Rest of song strums the chords:

Gm      (-6640-)
Fadd11  (-4430-)

===============================================================================
Tap to rate this tab
 
# A B C D E F G H I J K L M N O P Q R S T U V W X Y Z