Song name
# A B C D E F G H I J K L M N O P Q R S T U V W X Y Z

Buckethead - Ghosts Upstairs tab

                                      ¨Buckethead¨

                                    _Ghosts Upstairs_


Album: 'Acoustic Shards'
Tuning: Half Step Down

my cover to give you an idea of how it sounds
http://www.youtube.com/watch?v=TqDhbxgaiJg
(what i tabbed isn't 100% accurate)

A. intro
--------------------------------------------------------------------|
--------------------------------------------------------------------|
--------------------------------------------------------------------|
----0-4-4~-----0-------0------------0-4-4~------0-------0-----------|
--2----------4---4---4---4---4----2-----------2---2---4---4---4-----|
-----------5-------5-------5----------------3-------5-------5-------|

                                   you can also strum these parts
------------------------------------------------------------------|
---------2~-------------------------------------------------------|
------------------------------------------------------------------|
----0--4--------0-------0-----------0-------0--------0-------0~---|
--2-----------4---4---4---4---4---2---2---2---2----4---4---4------|
------------5-------5-------5---3-------3--------5-------5--------|

repeat intro with palm mute and slight variation

B. at 0:21
repeat 4x

---------------------------|
--3---------------3--------|
--2-----2-------2---2------|
--4--4----4--5-------------|
--2------------------------|
---------------------------|

C. at 0.30
strum these chords

--0----------------|
--3----------------|
--4---2---3/-------|
--4---2---5/-------|
--2---0---5/-------|
----------3/-------|

slide the last chord up and make weird noises ^^

PLEASE RATE AND COMMENT THIS TAB!!!!
Tap to rate this tab
# A B C D E F G H I J K L M N O P Q R S T U V W X Y Z