Song name
# A B C D E F G H I J K L M N O P Q R S T U V W X Y Z

Buckethead - Final Wars tab

Final Wars- Buckethead
Well, this is my first tab since I couldn't find a tab for this song anywhere, so don't 
too harsh since I tabbed it by ear.

It's played half-step down, but I tabbed it in standard due to having a locking trem and 
being able to drop-tune.

I didn't tab it note for note exactly, but it's close enough that it should barely be noticable.

I believe the intro is played on a 7 string or a baritone, because it's lower than my 
goes so I'll just start on the next part.
Also, I have not tabbed the solos because my ear isn't that great, sorry.
I might be able to get the first solo up later, but the second and third are too fast 
me to tab.

Email me at aschey13@gmail.com or comment for corrections.
Intro x2 0:00-0:12

All tremelo picked.
Riff 1 x1 0:13-0:26
e|-------------------------------------------------------------------------|
B|-10-----------------10----13-11-10---------------------------------------|
G|----10-----------------10----------12-9-10-12-9-10-9---------------------|
D|-------9-10-12-10-9----------------------------------12------------------|
A|-------------------------------------------------------------------------|
E|-------------------------------------------------------------------------|

Solo 1 x1 0:27-0:50

  Riff 2 x2 0:51-1:05
e|-------------------------------------------------------------------------|
B|-------------------------------------------------------------------------|
G|-10-10-10-10--12-12-12-12--14-14-14-14--12-12-12-12----------------------|
D|-12-12-12-12--14-14-14-14--15-15-15-15--14-14-14-14----------------------|
A|-------------------------------------------------------------------------|
E|-------------------------------------------------------------------------|

Solo 2 x1 1:06-1:31

  Riff 3 x2 1:32-1:55
e|-------------------------------------------------------------------------|
B|-------13-10--10-10-----------15-13-15--------13-11-10-------------------|
G|----10--------------12-10-10-----------12-14-----------9-----------------|
D|-12----------------------------------------------------------------------|
A|-------------------------------------------------------------------------|
E|-------------------------------------------------------------------------|

  Riff 4 x1 1:56-2:08
e|-------------------------------------------------------------------------|
B|--------------8~--10~--11~--10~--8~--------------------------------------|
G|-7~--9~--10~-------------------------10~--9~--5~--2~---------------------|
D|-------------------------------------------------------------------------|
A|-------------------------------------------------------------------------|
E|-------------------------------------------------------------------------|

  Riff 5 x1 2:09-2:21  Not 100% sure about the last two notes.
e|-------------------------------------------------------------------------|
B|-------------------------------------------------------------------------|
G|-----5-7~--5-------------------------------------------------------------|
D|-7~----------7~--5~------------------------------------------------------|
A|---------------------3-5~------------------------------------------------|
E|-------------------------------------------------------------------------|

  Riff 6 x2 2:22-2:35  Played with a killswitch, but it sounds fine picked.
e|-------------------------------------------------------------------------|
B|-------------------------------------------------------------------------|
G|---------------------------9-9-------------------------------------------|
D|-5h7-7-7-7-5h7-7-7-7-5h7-7-----10-10-9-9-12-12-12-12-10-10-9-9-5h7-7-7-7-|
A|-------------------------------------------------------------------------|
E|-------------------------------------------------------------------------|

e|-----------|
B|-----------|
G|-----------|
D|-5h7-7-7-7-|
A|-----------|
E|-----------|

  Riff 7 x2 2:36-2:48
e|-------------------------------------------------------------------------|
B|-10~--8~------------8----------------------------------------------------|
G|----------10~--9-10---9~~------------------------------------------------|
D|-------------------------------------------------------------------------|
A|-------------------------------------------------------------------------|
E|-------------------------------------------------------------------------|

  Riff 8 x2 2:37-3:13  It varies slightly each time, so I just put the way I like to 
it.
e|-------------------------------------------------------------------------|
B|------/12-10-12-----/12-10~----7-8-10--8-7-------7-8-10--8-7-8-7---------|
G|---7--------------7----------7-------------7~--7-------------------------|
D|-7--------------7--------------------------------------------------------|
A|-------------------------------------------------------------------------|
E|-------------------------------------------------------------------------|

  Riff 9 x2 3:14-3:26  Not too sure about the last line.
e|-------------------------------------------------------------------------|
B|-14b15r14-12---------------------14b15r14-12-----------------------------|
G|------------11-------------------------------11----------------------11--|
D|---------------11b12r11-9---9~------------------11b12r11-9---9-11-12-12--|
A|--------------------------9--------------------------------9-------------|
E|-------------------------------------------------------------------------|

e|-------------------------------------------------------------------------|
B|-------------------------------------------------------------------------|
G|-----12-11-9-11---------9-11-11-12-11------------------------------------|
D|-12-------------9-11-12--------------------------------------------------|
A|-14----------------------------------------------------------------------|
E|-------------------------------------------------------------------------|

Solo 3 x1 3:15-end


| /  slide up
| \  slide down
| h  hammer-on
| p  pull-off
| ~  vibrato
| +  harmonic
| x  Mute note
===============================================================================
Tap to rate this tab
# A B C D E F G H I J K L M N O P Q R S T U V W X Y Z