Song name
# A B C D E F G H I J K L M N O P Q R S T U V W X Y Z

Buckethead - Four Rivers tab

Do this 2 times.
|-----------------------8----------8--|
|--8~~8----------6--8~~---8-----8-----|
|--8~~8---7--7-8----8~~-----8---------|
|-------------------------------------|
|-------------------------------------|
|-------------------------------------|
 

Then the lead part.
|---------------------------------|
|---------------------------------|
|--10/12~~/17--15---10--10/12-----|
|---------------------------------|
|---------------------------------|
|---------------------------------|


Then this 3 times. I'm not sure if this is right.
|---------------------------------------|
|---------------------------------------|
|-------0---------0-----------------0---|
|---5-----5---5-----5---5---5---5-----5-|
|-3---3-----3---3-----3---3---3---3-----|
|---------------------------------------|


Then this like 16 times.
|--8-------8-------8-----|
|----8---8---8---8---8---|
|------8-------8-------8-|
|------------------------|
|------------------------|
|------------------------|

Then this again.
|-----------------------8----------8--|
|--8~~8----------6--8~~---8-----8-----|
|--8~~8---7--7-8----8~~-----8---------|
|-------------------------------------|
|-------------------------------------|
|-------------------------------------|


Then the lead. Around 1:25
|----------------------------------|
|----------------------------------|
|--3/5---7/8----8/10--8--8h9p8--5--|
|----------------------------------|
|----------------------------------|
|----------------------------------|

Around 1:45
|-----------------------------------------------------------|
|-----------------------------------------------------------|
|--8/10--8--7--5--3-----------10----7/8---8/10---8\7---5~~~-|
|--------------------3/5------------------------------------|
|-----------------------------------------------------------|
|-----------------------------------------------------------|


Then.
|--8-------8-------8-----|
|----8---8---8---8---8---|
|------8-------8-------8-|
|------------------------|
|------------------------|
|------------------------|

Until end
|-----------------------8----------8--|
|--8~~8----------6--8~~---8-----8-----|
|--8~~8---7--7-8----8~~-----8---------|
|-------------------------------------|
|-------------------------------------|
|-------------------------------------|
Tap to rate this tab
 
# A B C D E F G H I J K L M N O P Q R S T U V W X Y Z