Song name
# A B C D E F G H I J K L M N O P Q R S T U V W X Y Z

Buckethead - Earth Heals Herself tab

Song: Earth Heals Herself
Artist: Buckethead
Album: Population Override

Tabbed by: Dean Fouchia
Email: dfouchia@umich.edu

It’s on the D# Major Diatonic Scale.
I didn’t tab out the first 12 seconds, but if you want to play it just play some random 
off the scale.

Tuning: Standard

0:11
e|---------------------------------------------------------------------------|
B|---------------------------------------------------------------------------|
G|---------12~--15-13-12-12h13---------------12~-----------------------------|
D|---13h15---------------------13--x-x-13h15------15-13-12-12-12h13p12-12----|
A|---------------------------------------------------------------------------|
E|---------------------------------------------------------------------------|

e|------------15~------------------------------------------------------------|
B|---------------------------------------------------------------------------|
G|------------12~--15-13-12-12h13\8------------------------------------------|
D|--x-x-13h15-------------------------13h15p13-12-12h13p12\10----------------|
A|---------------------------------------------------------------------------|
E|---------------------------------------------------------------------------|

0:37
e|---------------------------------------------------------------------------|
B|-----------8h9-9s11-8------------------------------------------------------|
G|---------8------------10----------------8-10/12~--------8h10-8-10/12~------|
D|------10-----------------7b8r7~------10--------------10--------------------|
A|---10-----------------------------10--------------10-----------------------|
E|---------------------------------------------------------------------------|


e|----------------------------------------13b15r13p11-13/15---20---18--------|
B|---15-15-15h16-------------------------------------------------------------|
G|----------------15---13b-11-11h13------------------------------------------|
D|----------------------------------12h13------------------------------------|
A|---------------------------------------------------------------------------|
E|---------------------------------------------------------------------------|

1:00
e|--18p16p15-15-16---------------------------------------------10-11---------|
B|-----------------16---11b-------------------------11p8---------------------|
G|--------------------------10h12p10----10----8----------10b---------10-12---|
D|-----------------------------------10----10--------------------------------|
A|---------------------------------------------------------------------------|
E|---------------------------------------------------------------------------|


e|--13-15----------------15---------18-18-18p16p15-15------------------------|
B|--------16---16-------------13~----------------------18b-16-18-16-15-15b---|
G|-----------------13-12-----------------------------------------------------|
D|---------------------------------------------------------------------------|
A|---------------------------------------------------------------------------|
E|---------------------------------------------------------------------------|

1:16
e|------------------------------------------------------------------11-15----|
B|---------------------------------------------------------------------------|
G|--17p15----15h17—15p12-------------15----------------------15-15-----------|
D|--------17-------------15—13p10h13-13—12h13p12----12h13p12-13--------------|
A|-----------------------------------------------15--------------------------|
E|---------------------------------------------------------------------------|


e|-----11--------------------------------------------------------------------|
B|--11----13-------11--------------------------------------------------------|
G|-----------12-10----12----10-8---------------------------------------------|
D|-----------------------10------10-8----------------------------------------|
A|------------------------------------10-8-----------6-8/10------------------|
E|-----------------------------------------8--x--6-8-------------------------|

1:30
e|----------------------------------------------------------11---------------|
B|-------8-------------------------13p11----11--13-13p11--------13p11--------|
G|---------10-8-10-8-1010p8-10/12--------12--------------12-----------12-10b-|
D|--8-10---------------------------------------------------------------------|
A|---------------------------------------------------------------------------|
E|---------------------------------------------------------------------------|


e|---------------------------------------------------------------------------|
B|-------------------------11-8~----18b20----------(20)-r18—18p16-18-16-18b--|
G|-----12-10-8-7-8-7----8----------------------------------------------------|
D|-13----------------10------------------------------------------------------|
A|---------------------------------------------------------------------------|
E|---------------------------------------------------------------------------|

1:48
e|-18-----------------------------------18--16-15--16-----18-----------------|
B|----20-18p16-18b20r18----18b-18-15h16---------------16-----15b16r15--------|
G|---------------------------------------------------------------------------|
D|---------------------------------------------------------------------------|
A|---------------------------------------------------------------------------|
E|---------------------------------------------------------------------------|


e|---------------------------------------------------------------------------|
B|---------------------------------------------------------------------------|
G|-17-------15--------------------15-12---------------------15-12------------|
D|----15-17-----15-13----15--x-x--------15-13-------15-13---------15-13------|
A|--------------------15-----x-x--------------15-13---------------------15-13|
E|---------------------------------------------------------------------------|

2:04
e|---------------------------------------------------------------------------|
B|---------------------------------------------------------------------------|
G|------15-12------------------15-12-----------------------------------------|
D|-15---------15-13-------15---------15-13----13---------------------------13|
A|------------------15-13------------------15----15-13-11-13-13---15-13-15---|
E|---------------------------------------------------------------------------|


e|-------------------------15------------------------------------------------|
B|-18p16p15----15----16-------16--------------------------16-18---18-20-17---|
G|----------19----------17---------19-15-------19------20-17-17---17-20-17---|
D|---------------------------------------15h17-15---17-17--------------------|
A|---------------------------------------------------------------------------|
E|---------------------------------------------------------------------------|

2:19
e|----15-16---------18-18---18h20--18----------------------------------------|
B|-16-------16---16-------------------20-18----------------------------------|
G|------------------------------------------20-19---15b~---17-15-------------|
D|---------------------------------------------------------------17-15-13-13-|
A|---------------------------------------------------------------------------|
E|---------------------------------------------------------------------------|


e|--------------------------------13b15r13p11-13-11---10h11p10---------------|
B|---------------------------13----------------------------------------------|
G|------12h15p12-15—15p12h15-------------------------------------10b12r10p8--|
D|---------------------------------------------------------------------------|
A|-15------------------------------------------------------------------------|
E|---------------------------------------------------------------------------|

2:37
e|---------------------------------------------------------------------------|
B|---------------------------------------------------16~-----20--------------|
G|-8-7---10-10h12---10-10h12---10-10h12---15-13-12--------17-----17~---17-19-|
D|-------10-10h13---10-10h13---10-10h13---17-15-13---------------------------|
A|---------------------------------------------------------------------------|
E|---------------------------------------------------------------------------|


e|----18----------------------------------------------------18p15--------------|
B|-----------------------18----------------------------------------------------|
G|-20----18~--17-19-20~-----20-19~---------------------------------------------|
D|----------------------------------13h15-15/17—13h15-15/17--------—13h15-17---|
A|-----------------------------------------------------------------------------|
E|-----------------------------------------------------------------------------|

3:18
e|---------------------------------------------------------------------------|
B|------------------------------------------------13-11----------------------|
G|----15---15-15p13-13-13p12-12----------8-10/12--------12-10----------10/12-|
D|-17---------------------------------10----------------------13p10h13-------|
A|---------------------------------10----------------------------------------|
E|---------------------------------------------------------------------------|


e|---------------------------------------------------------------------------|
B|-------------------------------------------16------------------------------|
G|---------15-----15----17p15----19--15---------17p15-17-15------------------|
D|-13-10------17--------------17--------17------------------17p15------------|
A|----------------------------------------------------------------18\15------|
E|---------------------------------------------------------------------------|

3:37
e|---------------------------------------------------------------------------|
B|-----------------------------------------------------------11/13-13-13-----|
G|--15-12-------------------12-----------12----------------------------------|
D|--------15-13-------15----12h13-----12-12h13----12/15-17-------------------|
A|--------------15-13--------------------------------------------------------|
E|---------------------------------------------------------------------------|


e|-10-10h11-13---15-15h16p13-------------------------------15-15h16p13-------|
B|-----------------------------15-15h16p15---13-13h15p13---------------------|
G|---------------------------------------------------------------------------|
D|---------------------------------------------------------------------------|
A|---------------------------------------------------------------------------|
E|---------------------------------------------------------------------------|

4:08
e|---------------------------------------------------------------------------|
B|---------------------------------------------------------------------------|
G|-17~----17--19—20---15~----15--17--19---13~----13---15--12---12-12p10-10---|
D|---------------------------------------------------------------------------|
A|---------------------------------------------------------------------------|
E|---------------------------------------------------------------------------|


e|--------------------------------18-----------------------------------------|
B|----------------18-20-18-----------20-20-20---18-----------15---18---------|
G|-10p8\7---/17------------20p19-------------------20-19---------------------|
D|---------------------------------------------------------------------------|
A|---------------------------------------------------------------------------|
E|---------------------------------------------------------------------------|

4:36
e|----------15------18-------------15------15----------------15------15------|
B|---------------------------------------------------------------------------|
G|-15-15/17----17~-----17~---15h17----17~-----17~---15-15h17----17~-----17~--|
D|---------------------------------------------------------------------------|
A|---------------------------------------------------------------------------|
E|---------------------------------------------------------------------------|


e|---------------------------------11----------15-------18-------------------|
B|---------------------------11-------13—13h15----15--------20==p18—--15b----|
G|-15-15h17~---------8/12----------------------------------------------------|
D|----------------10------13----13-------------------------------------------|
A|-------------10------------------------------------------------------------|
E|---------------------------------------------------------------------------|

5:02
e|----------------------------------15---------------------------------------|
B|-----15b16r15---------15b16r15----------15b16r15---------------------------|
G|--17----------17---17----------17----17----------17---15b17r15b17r15b17r15-|
D|---------------------------------------------------------------------------|
A|---------------------------------------------------------------------------|
E|---------------------------------------------------------------------------|


e|-------------------------15------------------------------------------------|
B|----------------------------16-15------------------------------------------|
G|--15-15b17r15b17r15-17------------17-15------------------------------------|
D|----------------------------------------17-15b17r15---13-15b17r15p13-------|
A|---------------------------------------------------------------------15----|
E|---------------------------------------------------------------------------|

5:19
e|---------------------------15----------------------------------------------|
B|-------15-16------15-15h16------16b-16p15-----------------11/13------------|
G|--15b--------15------------------------------------8-10p8------------------|
D|----------------------------------------------8-10-------------------------|
A|---------------------------------------------------------------------------|
E|---------------------------------------------------------------------------|


e|--------------------------------------------------------13~----------------|
B|-----------------------------------------13~---15-11~----------------------|
G|--10-8----10/12-10----8b10r8-----------------------------------------------|
D|-------10----------10--------------13h15-----------------------------------|
A|--------------------------------13-----------------------------------------|
E|---------------------------------------------------------------------------|

5:46
e|------------------------------------------------10-10--------------10-10-10|
B|--16-16-15-15-------16-16-16-15-15--------------------11-11----------------|
G|--------------12-12----------------12-12-12-12--------------10-10----------|
D|---------------------------------------------------------------------------|
A|---------------------------------------------------------------------------|
E|---------------------------------------------------------------------------|


e|---------------------------------------------------------------------------|
B|-11-11--------------13-13-11-11--------13-13-11-11-------------------------|
G|-------12-12-12-12---------------------------------------------------------|
D|--------------------------------13-13--------------13-13-13-13-------------|
A|---------------------------------------------------------------------------|
E|---------------------------------------------------------------------------|

5:57
e|---------------------------------------------------------------------------|
B|-11-11-11-11-11-11-11----16-15------15-11------13-9------11~---------------|
G|-------------------------------12---------10--------8----------------------|
D|---------------------------------------------------------------------------|
A|---------------------------------------------------------------------------|
E|---------------------------------------------------------------------------|


e|---------------------------------------------------15-------15-------------|
B|--16-15------13~-----------------------------13-------13-------13-15-------|
G|--------12------------------------10---12-------12-------------------12-15-|
D|-----------------------------10------8----10-------------------------------|
A|------------------------10------8------------------------------------------|
E|---------------------------8-----------------------------------------------|

6:27
e|---------------------------------------------------------------------------|
B|---------------------------------------------------------------------------|
G|---------------------------------------------------------------------------|
D|-13-15-12------------------------------------------------------------------|
A|----------15~--------------------------------------------------------------|
E|---------------------------------------------------------------------------|

| /  slide up
| \  slide down
| h  hammer-on
| p  pull-off
| ~  vibrato
| +  harmonic
| x  Mute note
| P Palm Mute
| b Bend
- r Release Bend
===============================================================================
Tap to rate this tab
# A B C D E F G H I J K L M N O P Q R S T U V W X Y Z