Song name
# A B C D E F G H I J K L M N O P Q R S T U V W X Y Z

Buckethead - Love Song About The Dead tab

                                           ¨BUCKETHEAD¨

                                      'Love Song About The Dead'


                                 As Played on Young Buckethead Vol.2

Original Version http://www.youtube.com/watch?v=EWXfmG9nKAc

My Cover http://www.youtube.com/watch?v=l6lvenzHNSk

Tuning: Half-Step Down

-----------0~---------------0~-------------0~---------------0-------|
--0-----------0---------------0------0---------0------0-------0-----|
----------------6-----6---------6------6---------6------6-------0~--|
-----7------------7-----7----------------7---------7------7---------|
--------0-----------------0----------0------------------------------|
--------------------------------------------------------------------|


-------------------------------0~-------------------|
---10--------10-------------------------------------|
---------9~-----13~---------11-------11-------------|
------11--------------11----------9-----------------|
---9---------------------12-------------------------|
----------------------10----------------------------|


----------------------------------------------------|
------10---------10---------------------------------|
----------13-9~-----13~-----------11---------11-----|
---11---------------------11------14--14~-----------|
---9--------------------------12----------12--------|
--------------------------10------------------------|


-------------------------------0~-------------------|
-----10--------10-----------------------------------|
---------13--9----13--------11-------11-------------|
---11-----------------11----------9-----------------|
---9---------------------12-------------------------|
----------------------10----------------------------|

----------------------------------------------------|
-------10----------10-------------------------------|
-----------13--9-------13---13~---------------------|
---11-----------------------11~---------------------|
---9------------------------12~---------------------|
----------------------------10~---------------------|

---------------0~-----------0~-----------|
--------0---------0~---------------------|
----------6-------------6----------------|
-----7------7~------------7----7/--------|
----------------------0------------------|
--0~-------------------------------------|


--2-2-----2--------------------0-------------------|
--2---2---2h3--2h3p2---------0------2--2-2~--------|
--2-------2----------2--------------2--2-2~--------|
--4-------4------------4---2--------4--4-4~--------|
---------------------------------------------------|
---------------------------------------------------|


---4-5-4-------------4--4-4-4--4-------------------------------|
---3-----3~------3---5--5-5-5--5-----------0~------------------|
---2---------2-2-----4--4-4-4--4-4-----6-------6---------------|
---0-------------------------------------7-------7-------------|
-------------------------------------0--------------0-{5}~-----|
---------------------------------------------------------------|


PLEASE RATE AND COMMENT !!!
Tap to rate this tab
# A B C D E F G H I J K L M N O P Q R S T U V W X Y Z