Song name
# A B C D E F G H I J K L M N O P Q R S T U V W X Y Z

Buckethead - Little Gracie tab

-------------------------------------------------------------------------------
			     LITTLE GRACIE - Buckethead
-------------------------------------------------------------------------------
Tabbed by: Joe Lynch
Email: lynch.j.91@gmail.com

Hey this is my first tab so any kind of feedback (adjustments, tips,
  suggestions, a better way of doing things) would be greatly appreciated.
  plus im not much of a tab reader so if any symbols are wrong plz let me know
  thanks!


Tuning: 1/2 step down (eb,Bb,Gb,Db,Ab,Eb)

e|-----------------------------------0----------|--|-------------------5-----|
B|-3----3-----3---3----3-----3---1------1-1--0--|--|--3---3---3----3----3----|
G|--00---0---0-----0----0---0-----0------0---0--|X2|---0---0-0------0----0---|
D|--------0h2-------0----0h2-------2---------2--|--|----4---4----4---4-------|
A|-------------------------------3-----------3--|--|--5----------5-----------|
E|-3--------------3-----------------------------|--|-------------------------|

e|---------------------------------------------------5----------------3---2--|
B|--8---8---7----7----0h1--------3------8----8---7------------------0--------|
G|---9------7-7----------0-------2-------9-------7-7--------------5----------|
D|----9-----7--7-----0-----------0--------9------7--------------2------------|
A|----------5------------------------------------5------------3--------------|
E|--0-----------------------------------0------------------------------------|

e|-----------------------------------0----------|--|------------------5------|
B|-3----3-----3---3----3-----3---1------1-1--0--|--|--3---3---3---3----3-----|
G|--0----0---0-----0----0---0-----0------0---0--|X2|---0---0-0-----0----0----|
D|---0----0h2-------0----0h2-------2------------|--|----4---4-------4--------|
A|-------------------------------3--------------|--|--5---------5------------|
E|-3--------------3-----------------------------|--|-------------------------|

e|-------------------------------2-------------------5----------------3---2--|
B|--8---8---7----7----0h1--------3------8----8---7------------------0--------|
G|---9------7-7----------0-------2-------9-------7-7--------------5----------|
D|----9-----7--7-----0-----------0--------9------7--------------2------------|
A|----------5------------------------------------5------------3--------------|
E|--0-----------------------------------0------------------------------------|

e|--------------------------------------------------------|--10---10---------|
B|--0-----1---1--1-----3---3--3-----5-----7---8----8---8--|----8----8--------|
G|---0-----0-0----0-----0-0----0-----0-----0----0---0-0---|-----0----0-0-----|
D|----0h2---2----2-2/4---4----4-4/5---5/7--------9---9----|-----------9------|
A|--------------------------------------------10----------|--10--------------|
E|--3-----------------------------------------------------|------------------|

e|-10---10---8--7-------7---7-----7--------3-----------5---------------------|
B|---8----8------8-8p7h8-8---8p7h8-8---1----1----1/3----3------0--1--1p0-----|
G|----0----0------9-----------------9---0----0-0----0----0-0--0-0---0---0-[5]|
D|---------------------------------------3----3------4----4-------2----------|
A|-10----------------------------------3---------3/5-------------------------|
E|--------------0-----------0---------------------------------3--------------|

e|-----------------------------------0----------|--|------------------5------|
B|-3----3-----3---3----3-----3---1------1-1--0--|--|--3---3---3---3----3-----|
G|--0----0---0-----0----0---0-----0------0------|X2|---0---0-0-----0----0----|
D|---0----0h2-------0----0h2-------2------------|--|----4---4-------4--------|
A|-------------------------------3--------------|--|--5---------5------------|
E|-3--------------3-----------------------------|--|-------------------------|

e|-------------------------------3-------------------5----------------3---2--|
B|--8---8---7----7----0h1--------3------8----8---7------------------0--------|
G|---9------7-7----------0-------2-------9-------7-7--------------5----------|
D|----9-----7--7-----0-----------0--------9------7--------------2------------|
A|----------5------------------------------------5------------3--------------|
E|--0-----------------------------------0------------------------------------|

e|-------------------------------------------------------10------------------|
B|--0-----1---1--1-----3---3--3-----5-----7------------8---------------------|
G|---0-----0-0----0-----0-0----0-----0-----0---------0-------------[5]-------|
D|----0h2---2----2-2/4---4----4-4/5---5/7---7------9-------------------------|
A|----------------------------------------------10---------------------------|
E|--3------------------------------------------------------------------------|




| /  slide up
| \  slide down
| h  hammer-on
| p  pull-off
| ~  vibrato
| x  Mute note
===============================================================================
Tap to rate this tab
# A B C D E F G H I J K L M N O P Q R S T U V W X Y Z