Song name
# A B C D E F G H I J K L M N O P Q R S T U V W X Y Z

Buckethead - Checkerboard Incision tab

Checkerboard incision
(tab does not have ending solo)


h=hammer on
p=pull off


intro
e---------------------8-----------------------------|
B------8h10p8-------8---8------8h10p8--------8----8-|
G-------------9-10--------10-----------9-10-----9---|
D---------------------------------------------------|  X2
A--0------------------------0-----------------------|
E---------------------------------------------------|

            (end of intro)
e---------------------------------------------------------------------------|
B---12---10---8-------------------------------------------------------------|
G---11----9---7---(drums come in)-------------------------------------------|
D---9-----7---5--------------------------5---2h3p2-2------5---------5-------|
A--------------------------------------3--------------0h3---------3---------|
E----------------------------------3h5------------------------3h5-----------|

e----5-5-5-5----0----|
B----6-6-6-6----5----|
G----5-5-5-5----0----|  repeat from after the intro, then repeat from the top
D----5-5-5-5----7----|
A----6-6-6-6----7----|
E----6-6-6-6----0----|

bridge
e------------------------------------|
B------------------------------------|
G------------------------------------|
D------------------------------------|
A------------------------------------|   repeat 8 times
E--5p3-5p3-5p3-5p3-5p3h5-0h1-0h1p0---|

e-7h8p7---8p7--------7h8p7----8p7----------|
B-------8-----8--10--------8------6h8-10---|
G------------------------------------------|
D------------------------------------------|  X2
A------------------------------------------|
E------------------------------------------|

outro (leads up to solo)
e----------------------------------------------------------------------|
B----------------------------------------------------------------------|
G----------2----------------------2---3-3-3-3-3-3-3-3-2-2-2------------|
D--0---3-5----0---3-------0---3-5--------------------------3-3-3-2-2---|  X2
A--------------------2-0-----------------------------------------------|
E----------------------------------------------------------------------|

this tab does not include the solo at the end
Tap to rate this tab
# A B C D E F G H I J K L M N O P Q R S T U V W X Y Z