Song name
# A B C D E F G H I J K L M N O P Q R S T U V W X Y Z

Buckethead - The Redeem Team tab

This is 99% correct!
e)----------------------0----------------7----------|
B)---------0--h8--p0----0----------------7----------|
G)--------------------------9---------9-----9---9---|
D)----------------------------------9---------9-----|
A)----(2)------------------------7------------------|
E)--0-----------------------------------------------|

e)----------------------0----------------7----5---|
B)---------0--h8--p0----0--------------------5----|
G)--------------------------9---------9-------7---|
D)----------------------------------9---------7---|
A)----(2)------------------------7------------5---|
E)--0---------------------------------------------|

e)--------------------------------------------------------------------|
B)--------------------------------------------------------------------|
G)--------------------------------------------------------------------|  x2
D)--2--5--4--2--0-----------------------------------------------------|
A)-------------------3--2--3--2--0----0--2--3--2--0-------------------|
E)------------------------------------3------------------3--2--0------|
Tap to rate this tab
# A B C D E F G H I J K L M N O P Q R S T U V W X Y Z