Song name
# A B C D E F G H I J K L M N O P Q R S T U V W X Y Z

Buckethead - Pure Imagination tab

Buckethead - Pure Imagination (aka Wonka in Slaughter Zone)


This is about 95% correct IMO. It's the best I can make out from listening to the song. 
hope you enjoy playing this lovely tune as much as I do! :)!


Standard E Tuning

|-15---17-15-17-15----14----------------------------------------10---|
|------------------------15-----------12---13-12-13-12-------12------|
|---------------------------16--------12----------------12---11------|
|-------------------------------------10----------------------0------|
|-15------------------14---------------0-----------------------------|
|--------------------------------------------------------------------|

|----------------------------------12--14p12h14p12---12-14-15-16-17--|
|-19--20-19-20-19----------19----------------------------------------|
|-18----------------18--21-------------------------------------------|
|-20--------------------21---------14----------------14-16-17-18-19--|
|-----------------------19-------------------------------------------|
|-----------------------19----------0--------------------------------|

|-----------------------------14---15-14-15-14-15-14--------|
|-----------------------------------------------------15----|
|--------7-----------7--------------------------------------|
|--5-----------5------------5-16---17-16-17-16-17-16--------|
|-7-----7-----7-----7-----7---------------------------17----|
|------------------------------0----------------------------|

|----------------------------------------------------|
|---------------------------------------7------------|
|-----4---5-7-5p4------------------------------------|
|---5---------------7-5-4---5p4h5p4h5p4--------------|
|-7--------------------------------------------------|
|----------------------------------------------------|

|----------------------------------------------------|
|-8---10-8-10-8-----7--------------------------3-----|
|---------------------7--------4---5-4-5-4---4-------|
|-----------------------9------5-----------5-4-------|
|------------------------------0-------------5-------|
|-8-----------------7------------------------3-------|

|-2---3-2-3-2-----2-----0--2p0h2p0----0-2-3-4-5------|
|-2-----------2-5------------------------------------|
|-3-------------4-------1----------------------------|
|-4-------------4-------2-------------2-4-5-6-7------|
|----------------------------------------------------|
|-----------------------0----------------------------|
Tap to rate this tab
# A B C D E F G H I J K L M N O P Q R S T U V W X Y Z