Song name
# A B C D E F G H I J K L M N O P Q R S T U V W X Y Z

Buckethead - Cannibal Holocaust tab

e|------3------|--------------------|--------0-------|-------3h2-------|
B|-------3-----|--------------------|----------1-----|-----------3-----|
G|---------0---|-----------------0--|------------0---|-----2-------2---|x3
D|--0--------0-|---------------0----|---2----------2-|-0-------------0-|
A|--2----------|----------0h2-------|---3------------|-----------------|
E|--3----------|---3----------------|----------------|-----------------|

 
e|------------|--------------|--------------|-------------|
B|------------|--------------|--------------|-12----------|
G|-12---------|-11---12------|----12h14---12|-------14----|x1
D|---------12-|--------------|--------------|-------------|
A|------------|--------------|--------------|-------------|
E|------------|--------------|--------------|-------------|

                    
e|------------|--------------|--------------|--------12---|
B|-15-----12--|-13---13h15---|---13---h12---|--13---------|
G|------------|--------------|--------------|-------------|
D|------------|--------------|--------------|-------------|
A|------------|--------------|--------------|-------------|
E|------------|--------------|--------------|-------------|

e|------------|--------------|--------------|-------------|
B|-15-----12--|-13---13h15---|---13---h12---|--13----12---|
G|------------|--------------|--------------|-------------|
D|------------|--------------|--------------|-------------|
A|------------|--------------|--------------|-------------|
E|------------|--------------|--------------|-------------|
Tap to rate this tab
# A B C D E F G H I J K L M N O P Q R S T U V W X Y Z