Song name
# A B C D E F G H I J K L M N O P Q R S T U V W X Y Z

Buckethead - Dawn Appears tab

-----------------------------------------------------------------------------
			     Dawn Appears - Buckethead
-----------------------------------------------------------------------------


Tabbed by: D Strain

Sorry guys I hate doing intros but got lazy it's way better than any of the
other ones promise let me know how bad you guys need the solo and I will try
and help you guys out peace and cheers.

e|--------------------------------------------|
B|-------11p10--------------------------------|
G|----10-------10----10h12-10-----------------|x4
D|-12-------------12----------12-13p12-13p12--|
A|----------------------------13--------------|
E|----------------------------11--------------|

Please someone more skilled than I help me so I can fix the next to bars.
Have no idea; this is what I got but not 100% right.

e|-------------------|
B|-------------------|
G|---5-----3---------|x4
D|-----8-----3---3---|
A|-8-----6-----5-----|
E|-------------------|

e|--------------------------------|
B|--------------------------------|
G|--------0--0--0-----------------|x4
D|----8---8--8--8--7-8----8---8---|
A|-10--10----------8--------8-----|
E|----------------------11--------|

e|--------------------------------------------|
B|-------11p10--------------------------------|
G|----10-------10----10h12-10-----------------|x4
D|-12-------------12----------12-13p12-13p12--|
A|----------------------------13--------------|
E|----------------------------11--------------|

Note his hands are really big...

e|------------------------------------------|
B|------------------------------------------|
G|------------------------------------------|
D|-------8--------8--------8-------8-10p8---|
A|----12-------12-------12------12----------|
E|-15-------15-------13------11-------------|

e|------------------------------------------------------------|
B|------------------------------------------------------------|
G|------------------------------------------------------------|
D|-------8--------8-----12------12-----12-------12-12h13p12---|
A|----12-------12----------10-------------10------------------|
E|-15-------15-------13-------11----11-------11---------------|

e|-------------------------------------------|
B|--------------------3----------------------|
G|--------------------7-7h8-7h8-10-----------|
D|-------8--------8---8----------------------|
A|----12-------12-----6----------------------|
E|-15-------15-------------------------------|




Tap to rate this tab
# A B C D E F G H I J K L M N O P Q R S T U V W X Y Z