Song name
# A B C D E F G H I J K L M N O P Q R S T U V W X Y Z

Buckethead - 12 Days Of Christmas tab

h=hammer on or off




|---------------01-----0--1-3-5-1--0---------------------------------------|
|------111--013-----3-----------------1h3h1--------------------------------|
|-000----------------------------------------------------------------------|
|--------------------------------------------------------------------------|
|--------------------------------------------------------------------------|
|--------------------------------------------------------------------------|

|---------------01-----0--1-3-5-1--0-|--3-----0-1--------------------------|
|------111--013-----3----------------|---3-----------3---------------------|
|-000--------------------------------|-------------------------------------|
|------------------------------------|-------------------------------------|
|------------------------------------|-------------------------------------|
|------------------------------------|-------------------------------------|

he normally plays the part on the right side above for 32-36 times ^^^^

|--3-5-2-3-----3-1-0-------1---------------------1-3-5-1-0-----------------|
|---------------------3-1------1------3-1-0---------------1h3h1------------|
|----------------------------2----------------2----------------------------|
|--------------------------------------------------------------------------|
|--------------------------------------------------------------------------|
|--------------------------------------------------------------------------|
Tap to rate this tab
# A B C D E F G H I J K L M N O P Q R S T U V W X Y Z