Song name
# A B C D E F G H I J K L M N O P Q R S T U V W X Y Z

Buckethead - Oakridge Cake tab

|------------------------------|
|------------------------------|
|------------------------------|
|------------------------------|
|----------------------------4-|
|-x-4h6-x-x-x-4h6-x-x-x-4h6----|

|------------------------------|
|------------------------------|
|------------------------------|
|------------------------------|
|------------------------------|
|-x-4h6-x-x-x-4h6-x-x-x-4h6--7-|

repeat above a few times

|---------------|
|---------------|
|---------------|
|---------------|
Half Step Down
|---------------|
|-------4-------|
|-4p2h4---4-3p0-|
            ^^^
            Im iffy about this let me know, with some muting it sounds ok

this is the chorus i guess... whatever i like it the best
|-------------------------------------------------|
|-------------------------------------------------|
|-------------------------------------------------|
|---6/8\6-4-3p4h3---6/8\6-4-3p4h3---6/8\6-4-3p4h3-|
|--4---------------4---------------4--------------|
|-6---------------6---------------6---------------|

|---------|
|---------|
|---6-----|
|--6------|
|-4---3---|
|-------4-|
Tap to rate this tab
# A B C D E F G H I J K L M N O P Q R S T U V W X Y Z