Song name
# A B C D E F G H I J K L M N O P Q R S T U V W X Y Z

Buckethead - Android Of Notre Dame tab

Note: this is my first tablature--and the first for this song--so it might not be 
accurate. If you would like to help in improving to this tab, please feel free to 
make updated versions.

Legend:
P.M = Palm Mute
H.O = Hammer On
P.O = Pull Off

Android of Notre Dame (rough tab)

Standard Tuning - E A D G B e

Verse 1 (P.M whole verse; Intro riff goes as follows: H.O, H.O, P.O, and repeat for every segment)
e||-----------------------------------------------------------------------------------------------|
B||-----------------------------------------------------------------------------------------------|
G||-----------------------------------------------------------------------------------------------|
D||-----------------------------------------------------------------------------------------------|
A||2-1-0-2-1-0-3-2-0-3-2-0-4-3-0-4-3-0-5-4-0-5-4-0-6-5-0-6-5-0-7-6-0-7-6-0-8-7-0-8-7-0-9-8-0-9-8-0|
E||-----------------------------------------------------------------------------------------------|

e||-----------------------------------------------------------------------------------------------|
B||-----------------------------------------------------------------------------------------------|
G||-----------------------------------------------------------------------------------------------|
D||-----------------------------------------------------------------------------------------------|
A||2-1-0-2-1-0-3-2-0-3-2-0-4-3-0-4-3-0-5-4-0-5-4-0-6-5-0-6-5-0-7-6-0-7-6-0-8-7-0-8-7-0-9-8-0-9-8-0|
E||-----------------------------------------------------------------------------------------------|

Verse 2 (repeat twice)
e||---------------------------------------------------|
B||---------------------------------------------------|
G||----------------------------7--7--7--9--9--9--9--9-|
D||-9--9--9--5--5--5--7--7--7--7--7--7--9--9--9--9--9-|
A||-9--9--9--5--5--5--7--7--7--5--5--5--7--7--7--7--7-|
E||-7--7--7--3--3--3--5--5--5-------------------------|

This is all I have for now. I am hoping to figure out the rest of the song. For now, I 
it at this. Once again, I would admire improved versions of this tablature. If you have a 
please e-mail me at redoctane0421@hotmail.com. Rock on! \m/,
Tap to rate this tab
 
# A B C D E F G H I J K L M N O P Q R S T U V W X Y Z