Song name
# A B C D E F G H I J K L M N O P Q R S T U V W X Y Z

Buckethead - Oakridge Cake tab

-----------------------------------------------------------------------------
			     OAKRIDGE CAKE - Buckethead
-----------------------------------------------------------------------------
Tabbed by: the.insomniac247

Tuning: Key of A# (1.A# 2.F 3.C# 4.G# 5.D# 6.A#)

PART 1 0:00  0:37
|-----------------------------------------------------------------------| 
|-----------------------------------------------------------------------| x 4
|-----------------------------------------------------------------------|
|-----------------------------5-----------------------------------------| 
|------5-7------5-7-----5-7------------5-7------5-7------5-7---8b-------|
|--0-0------0-0-----0-0------------0-0------0-0------0-0----------------|

PART 2 0:38  0:56
|-------------------------------------------------|
|-------------------------------------------------| x 2
|-------------------------------------------------|
|---------5-------------------5-------------------|
|--7p5h7----7----------5p5h7----7-----------------|
|--------------5-7-----------------5-3----5-------|

PART 3 0:58  1:16 (x 2)
|---------------------|
|---------------------| x 3
|---------------------|
|---------------------|
|----0--7-5-32h3p2---|
|--0------------------| Then

|---------------------|
|---------------------|
|------5--4-----------|
|----5----4--5--------|
|--3------2--5--------|
|------------3--------|

PART 4 (Repeat PART 1) 1:17  1:35

PART 5 (Repeat PART 2) 1:36  1:54

PART 6 (Repeat PART 3) 1:55  2:14


PART 7 2:15  2:35
|----0------0------0------0--------|
|------0------0------0------0------| x 6
|--2------2------0------0----------|
|----------------------------------|
|--2-------------------------------|
|----------------3-----------------|





PART 8 2:36  2:48 (x 2)

|--------------------------------------------------------------|
|--------------------------------------------------------------|
|--------------------------------------------------------------|
|--------------------------------------------------------------|
|----5h7---7h9--10h12---12h14--14h15--14p12--12p10--9p7--------|
|--0-----0-----0-------0------0------0------0-----0------------| Then

|---------------------------|
|---------------------------|
|---------------------------| <-Repeat twice before returning to previous bar
|--------0-5h7--0-4h5-------|
|--0-5h7--------------0-3h5-|
|---------------------------|

PART 9 (Repeat PART 3 till end- approx. 4x) 2:49  3:28



************************************

| /   slide up
| \   slide down
| h   hammer-on
| p   pull-off
| ~   vibrato
| +   harmonic
| x   Mute note
| b   Bend
| pb  Pre-bend
| br  Bend release
| pbr Pre-bend release
| brb Bend release bend

************************************

Tap to rate this tab
# A B C D E F G H I J K L M N O P Q R S T U V W X Y Z