Song name
# A B C D E F G H I J K L M N O P Q R S T U V W X Y Z

Buckethead - Stretching Lighthouse tab

Buckethead - Stretching Lighthouse


A.  (3x)
E-[:---------------------:]--8-8-8-8--8-8-8-8--8------------:
B-[:---------------------:]--6-6-6-6--6-6-6-6--6------------:
G-[:-3h5-5-5p3-3-6-6-6-6-:]--6---6----6---6----6------------:
D-[:-3---3-3---3-3-------:]---------------------------------:
A-[:---------------------:]---------------------------------:
E-[:---------------------:]---------------------------------:

B. melody 0.27
E-[:20-16----16-18----18-16---------------------16-18--18-16---16-20--|
B-[:------18-------18-------18-21-20-18-20-21-18-----18-----18--------|
G-[:------------------------------------------------------------------|
D-[:------------------------------------------------------------------|
A-[:------------------------------------------------------------------|
E-[:------------------------------------------------------------------|

E----20-16----16-18----16~---18-15----15-16----16-15----15-18----18-|
B-18-------18-------18-------------16-------16-------16-------16----|
G-------------------------------------------------------------------|
D-------------------------------------------------------------------|
A-------------------------------------------------------------------|
E-------------------------------------------------------------------|

E-15--------------------------------------------------------:]
B----16/14-20-18----18-20----20-21----21-20----20-18--------:]
G----------------18-------18-------18-------18-------18~----:] Repeat 1x
D-----------------------------------------------------------:]
A-----------------------------------------------------------:]
E-----------------------------------------------------------:]

Rhythm over melody (tuning drop C !)
D-[:---------------------------------------------------:]
A-[:---------------------------------------------------:]
F-[:------------------3~-------------------------------:] Repeat 1x
C-[:-----5~~---5~-----3~---3~~-----1~~-----------------:]
G-[:-----5~~---5~-----1~---3~~-----1~~-----------------:]
C-[:-----5~~---5~----------3~~-----1~~-----------------:]

C. 0.45
E-11-8---11-8---8~---11-8---11-8---8~---11-8---8----8-------|
B------9------9-----------9------9-----------9---9~---------|
G-----------------------------------------------------------|
D-----------------------------------------------------------|
A-----------------------------------------------------------|
E-----------------------------------------------------------|

E-11-8---11-8---8~--11-8---11-8---8~--8----8-----8--11-8---11-8---8--|
B------9------9----------9------9-------9~---9-9---------9------9----|
G--------------------------------------------------------------------|
D--------------------------------------------------------------------|
A--------------------------------------------------------------------|
E--------------------------------------------------------------------|

Rhythm 0.45
D--------------------------------------------------------------------|
A------11~---------------11~-------------11~------13~----------------|
F------12~-------10~-----12~-----10~-----12~------12~----------------|
C------12~-------10~-----12~-----10~-----12~------10~----------------|
G------10~--------8~-----10~------8~-----10~-------------------------|
C--------------------------------------------------------------------|

D. 1.01 (Lead guitar)
E-[:-------------------------------------------------:]
B-[:--------4---------2---------2-1------------------:]
G-[:------1---------1---------1-----3-1-0------------:] Repeat 4x
D-[:--1--3-----1--3------1--3------------------------:]
A-[:-------------------------------------------------:]
E-[:-------------------------------------------------:]

1.01 (Rhythm guitar)
D-[:-------------------------------------------------:]
A-[:-------------------------------------------------:]
F-[:-------------------------------------------------:]
C-[:-5-------5----------5----------------------------:] Repeat 4x
G-[:-5-------5----------5----------------------------:]
C-[:-5-------5----------5----------------------------:]


E. 1.19
E-20-20-20-20-20-20-------------------------18-18-------------------------|
B-------------------20-20-20-20-20-20-21-21-------21-21-20-20-18-18-------|
G-------------------------------------------------------------------20-20-|
D-------------------------------------------------------------------------|
A-------------------------------------------------------------------------|
E-------------------------------------------------------------------------|

E-------------------------------------------------------------------------|
B-18-18-18-18-18-18-------------------------------------------------------|
G-------------------------------------18-18-20-20-18-18-17-17-17-17-17-17-|
D-------------------20-20-20-20-20-20-------------------------------------|
A-------------------------------------------------------------------------|
E-------------------------------------------------------------------------|

E-20-20-20-20-20-20-------------------------18-18-------------------------|
B-------------------20-20-20-20-20-20-21-21-------21-21-20-20-18-18-------|
G-------------------------------------------------------------------20-20-|
D-------------------------------------------------------------------------|
A-------------------------------------------------------------------------|
E-------------------------------------------------------------------------|

E-------------------------------------------------------------------------|
B-18-18-18----------------------------------------------------------------|
G-------------------17-17-17-17-17-17-20-20-20-20-18-18-17-17-17-17-17-17-|
D----------20-20-20-------------------------------------------------------|
A-------------------------------------------------------------------------|
E-------------------------------------------------------------------------|

1.19 Rhythm
D-[:-----------------------------------------------------------------|
A-[:-----------------------------------------------------------------|
F-[:-----------------------------------------------------------------|
C-[:5\3-(3)-3/5-(5)-5-5-5-5-5-5---8-8-8-8-8-8--7-7-7-7-7-7-----------|
G-[:5\3-(3)-3/5-(5)-5-5-5-5-5-5---8-8-8-8-8-8--7-7-7-7-7-7-----------|
C-[:5\3-(3)-3/5-(5)-5-5-5-5-5-5---8-8-8-8-8-8--7-7-7-7-7-7-----------|
. . . . . . . . . . . . . . .

D------------------------------------------------------------------:]
A------------------------------------------------------------------:]
F------------------------------10-10-10-10-10-10--8-8-8-8-8-8------:] 1x
C-5\3-(3)-3/5-(5)-5-5-5-5-5-5--10-10-10-10-10-10--8-8-8-8-8-8------:]
G-5\3-(3)-3/5-(5)-5-5-5-5-5-5---8--8--8--8--8--8--6-6-6-6-6-6------:]
C-5\3-(3)-3/5-(5)-5-5-5-5-5-5--------------------------------------:]
. . . . . . . . . . . . . . .

F. 1.38
E------------6-------6-8-9-8-6-------:
B------6-8-9---9-8-9-----------------:
G------------------------------------: Repeat 4x
D------------------------------------:
A------------------------------------:
E------------------------------------:

1.38 Rhythm
D------------------------------------:
A------------------------------------:
F---0-0-0--1-1-1--3-3-3--5-5-5-------: Repeat 4x
C------------------------------------:
G------------------------------------:
C------------------------------------:
. . . . . . . . . . . .

G. 1.47 Lead guitar plays rhythm! (repeat whole thing 2 x )
      (first this part 3x)                   (then this 2x )
E-[:------------------------------------:] :----------------------------:
B-[:------------------------------------:] :----------------------------:
G-[:-10-10-10-8-8-8---------------------:] :----------------------------:
D-[:-10-10-10-8-8-8--11-11-11-10-10-10--:] :---11-11-11-10-10-10--------:
A-[:-8---8--8-6-6-6--11-11-11-10-10-10--:] :---11-11-11-10-10-10--------:
E-[:------------------9--9--9--8--8--8--:] :----9--9--9--8--8--8--------:

E. 1.19
E-20-20-20-20-20-20-------------------------18-18-------------------------|
B-------------------20-20-20-20-20-20-21-21-------21-21-20-20-18-18-------|
G-------------------------------------------------------------------20-20-|
D-------------------------------------------------------------------------|
A-------------------------------------------------------------------------|
E-------------------------------------------------------------------------|

E-------------------------------------------------------------------------|
B-18-18-18-18-18-18-------------------------------------------------------|
G-------------------------------------18-18-20-20-18-18-17-17-17-17-17-17-|
D-------------------20-20-20-20-20-20-------------------------------------|
A-------------------------------------------------------------------------|
E-------------------------------------------------------------------------|

E-20-20-20-20-20-20-------------------------18-18-------------------------|
B-------------------20-20-20-20-20-20-21-21-------21-21-20-20-18-18-------|
G-------------------------------------------------------------------20-20-|
D-------------------------------------------------------------------------|
A-------------------------------------------------------------------------|
E-------------------------------------------------------------------------|

E-------------------------------------------------------------------------|
B-18-18-18----------------------------------------------------------------|
G-------------------17-17-17-17-17-17-20-20-20-20-18-18-17-17-17-17-17-17-|
D----------20-20-20-------------------------------------------------------|
A-------------------------------------------------------------------------|
E-------------------------------------------------------------------------|

1.19 Rhythm
D-[:-----------------------------------------------------------------|
A-[:-----------------------------------------------------------------|
F-[:-----------------------------------------------------------------|
C-[:5\3-(3)-3/5-(5)-5-5-5-5-5-5---8-8-8-8-8-8--7-7-7-7-7-7-----------|
G-[:5\3-(3)-3/5-(5)-5-5-5-5-5-5---8-8-8-8-8-8--7-7-7-7-7-7-----------|
C-[:5\3-(3)-3/5-(5)-5-5-5-5-5-5---8-8-8-8-8-8--7-7-7-7-7-7-----------|
. . . . . . . . . . . . . . .

D------------------------------------------------------------------:]
A------------------------------------------------------------------:]
F------------------------------10-10-10-10-10-10--8-8-8-8-8-8------:] 1x
C-5\3-(3)-3/5-(5)-5-5-5-5-5-5--10-10-10-10-10-10--8-8-8-8-8-8------:]
G-5\3-(3)-3/5-(5)-5-5-5-5-5-5---8--8--8--8--8--8--6-6-6-6-6-6------:]
C-5\3-(3)-3/5-(5)-5-5-5-5-5-5--------------------------------------:]
. . . . . . . . . . . . . . .

Do The Intro once more and that should see you through nicely :)
Comment any changes please.
Tap to rate this tab
# A B C D E F G H I J K L M N O P Q R S T U V W X Y Z