Song name
# A B C D E F G H I J K L M N O P Q R S T U V W X Y Z

Buckethead - Botnus tab

"Botnus"
Artist: Buckethead (with Efrem Schulz/Serj Tankian)
Released: 2004

Tabbed by: zes735

*I do not own this song, this is only my interpretation of it.
*No solo/clean parts tabbed out.

Intro:

eb|-----------------------------------------------------------------------|
Bb|-----------------------------------------------------------------------|
F#|-----------------------------------------------------------------------|
C#|-----------------------------------------------------------------------|
G#|-11--9--11--14--9--11--11--------11------------/-----------------------|
Eb|-9---7--9---12--7--9---9---------9-------------/-----------------------|

Verse Riff:

eb|-----------------------------------------------------------------------|
Bb|-----------------------------------------------------------------------|
F#|-----------------------------------------------------------------------|
C#|-----------------------------------------------------------------------|
G#|-----4-------44-------44-----44555774----------------------------------|
Eb|-222---2---2----2---2----2---------------------------------------------|

Chorus:

eb|-----------------------------------------------------------------------|
Bb|-----------------------------------------------------------------------|
F#|-----------------------------------------------------------------------|
C#|-44-4/7-4-4-24---------------------------------------------------------|
G#|-44-4/7-4-4-24---------------------------------------------------------|
Eb|-22-2/5-2-2-02---------------------------------------------------------|

Verse - Serj End:

eb|-----------------------------------------------------------------------|
Bb|-----------------------------------------------------------------------|
F#|-----------------------------------------------------------------------|
C#|-----11-------11-11-------11-11----11-11-12-12-12-14-14-11-------------|
G#|-999----9---9-------9---9-------9--------------------------------------|
Eb|-----------------------------------------------------------------------|

End:

eb|-----------------------------------------------------------------------|
Bb|-----------------------------------------------------------------------|
F#|-----------------------------------------------------------------------|
C#|-4-4--------5-4-4------------------------------------------------------|
G#|-4-4--------5-4-4------------------------------------------------------|
Eb|-2-2--------3-2-2------------------------------------------------------|

Song Order:
Intro
Verse (8)
Chorus (4)
Verse (8)
Verse - Serj End(4)
Solo
Clean - Buckethead
Intro
Verse (4)
Chorus (8) (Pause after the 4th time)
Clean Outro
End
Tap to rate this tab
# A B C D E F G H I J K L M N O P Q R S T U V W X Y Z