Song name
# A B C D E F G H I J K L M N O P Q R S T U V W X Y Z

Buckethead - Funbus tab

Funbus
Buckethead
Enter The Chicken

Guitar 1 (EADGBE)-Buckethead
Guitar 2 (BF#BEG#C#)-Buckethead

Riff 1 (Guitar 1)
E--------------------------------------|
B--------------------------------------|
G--------------------------------------|
D--------------------------------------| x4
A--------------------------------------|
E--5555555555555555-6p5p3p0-x-8p6p5p0--|

(Awesome Solo)
(Riff 1 x4)

Riff 2 (Guitar 2)
E----------------------------------|
B----------------------------------|
G----------------------------------|
D----------------------------------| x4
A--0-0-3-3-0-0--------0-0-3-5-0-0--|
E--0-0-3-3-0-0--------0-0-3-5-0-0--|

Riff 3 (Guitar 2)
E-------------------------------------------|
B-------------------------------------------|
G-------------------------------------------|
D----------3-2-0-2-2/3-----------3-2-0-3\---| x6
A--3/5--5----------------3/5--5-------------|
E--0----0----------------0----0-------------|

Riff 4 (Guitar 2)
(There is a specified rythym to this, but I can't figure it out.)
E-----------------------------------------------------------|
B-----------------------------------------------------------|
G-----------------------------------------------------------|
D-----------------------------------------------------------|
A--0-0-0-0-0-0-0-0-0-0-0-0-0-0-0-0-0-0-0-0-0-0-0-0-0-0-0-0--|
E--0-0-0-0-0-0-0-0-0-0-0-0-0-0-0-0-0-0-0-0-0-0-0-0-0-0-0-0--|

(Solo)
(Riff 3 x6)
(Riff 4 x8)
(Crazy Solo)
(Riff 1 w/Crazy Solo)
END

Note: Riff 1 can be played on a Drop B Guitar too if
you want to play along on CD, ipod, or what have you.
This can be changed by playing that same pattern 3 half-
steps up on the frets.

Thank you! Please rate and comment.
Give 5 stars if you think Buckethead
is the best "Bucket-teer" ever!
Tap to rate this tab
# A B C D E F G H I J K L M N O P Q R S T U V W X Y Z