Song name
# A B C D E F G H I J K L M N O P Q R S T U V W X Y Z

Buckethead - Frozen Brains Tell No Tales tab

Frozen Brains Tell No Tales
Buckethead
Bucketheadland 2

I've seen lots of versions, but I can't find mine,
so I've tabbed out the way that I like to play it.
PLZ rate & comment! If you have a buckethead song 
that isn't tabbed out, just tell me and I'll try 
to tab it to the best of my ability. Thanks!

Riff 1 (Delay/Echo)
C#-----------------------------------------|
G#-----------------------------------------|
E------------------------------------------|
B-----------7-7---8------------------------| x8
F#-------5-----------8\--------5-----------|
B---0--8------------------0--8---0-0-------|

Riff 2 (No Delay)
C#-----------------------------------|
G#-----------------------------------|
E------------------------------------|
B-------2---5-2---2-----2---3-2---2--| x4
F#--0-3-0-3-3-0-3-0-0-3-0-3-1-0-3-0--|
B---0-3---3-----3---0-3---3-----3----|

Riff 1 x4
Riff 2 x4

Riff 3 
C#---------------------------------|
G#---------------------------------|
E----------------------------------|
B-------------------Let-Ring-------| x2
F#---------------------------------|
B---0-3-7-3-6----------------------|

Riff 4
C#-------------------------------------|
G#-------------------------------------|
E--------------------------------------|
B--------------------------------------| x4
F#-------------------------------------|
B---10/12-0--8--10---10/12-0--8--------|

Riff 2 x2
Riff 1 x4
Riff 2 x4
Riff 3 x2
Riff 4 x6

Riff 5
C#--------------------------------------------------------------|
G#--------------------------------------------------------------|
E---------------------------------------------------------------|
B---------------------------------------------------------------| x4
F#--------------------------------------------------------------|
B---0--6/8--12----0--8/10--14----0--7--10----0--5---8--7--3b-0--|

Riff 2 x4
Riff 1 x1
(Solo, Fade Out)

Thank you!

Tap to rate this tab
# A B C D E F G H I J K L M N O P Q R S T U V W X Y Z