Buckethead - Maguas Scalp tab

Well, since they dont have a full version, I just decided to tab the whole song out.

Tuning: Eb-Ab-Db-Gb-Bb-Eb

Intro: 0:00-0:22 x8

This was quite hard to tab.
E|----------------------------------------------------------------------------|
B|----------------------------------------------------------------------------|
G|----------------------------------------------------------------------------|
D|-----------------------------12---------------------------------------------|
A|----------12---------------------------------12-----13-13-12-12-------------|
E|-10-10-10----10--10-10-10-10----10--10-10-10----10--------------13-13-12-12-|

Part 1: 0:22-0:32 x2

E|---------------------|-------------------|
B|---------------------|-------------------|
G|---------------------|-------------------|
D|-12--10-3/5--8--7-8--|-12--10--3/5--8--7-|
A|-12--10-3/5--8--7-8--|-12--10--3/5--8--7-|
E|-10--8--1/3--6--5-6--|-10--8---1/3--6--5-|

Part 2: 0:33-0:54 x4

E|--------------------------------------------------------|
B|--------------------------------------------------------|
G|-------------14-------------14-------------14-----------|
D|-12----------12-------------12-------------12-----10--8-|
A|-12----------12-------------12-------------12-12--10--8-|
E|-10-10-10-10----10-10-10-10----10-10-10-10----10--8---6-|

E|-------------------------------------------------------------|
B|-------------------------------------------------------------|
G|-------------14-------------14-------------14----------------|
D|-12----------12-------------12-------------12-----10--10--10-|
A|-12----------12-------------12-------------12-12--10--10--10-|
E|-10-10-10-10----10-10-10-10----10-10-10-10----10--8---8---8--|

Part 3: 0:54-1:04 x4

E|--------------------------|
B|--------------------------|
G|--------------------------|
D|-7-7-7-7-7-10--12--14--15-|
A|-7-7-7-7-7-10--12--14--15-|
E|-5-5-5-5-5-8---10--12--13-|

Repeat Intro: 1:05-1:14 x4
Repeat Part 2: 1:14-1:25 x2
Repeat Part 3: 1:26-1:37 x4
Repeat Intro: 1:37-1:46 x4

Part 4: 1:46-2:08 x4

E|----------------------------------------------------------|
B|----------------------------------------------------------|
G|----------------------------------------------------------|
D|--------------------------------7-5-----------------------|
A|-------7--5-------5-----------------8-7-7h8p7h8p7h8p7h8p7-|
E|-5--8-------8-7-8---8-7---5--8----------------------------|

Part 5: 2:09-2:40 x8

E|------------------------------|
B|------------------------------|
G|-9--9-7-9--9-7-10--10-12-10-9-|
D|-7--7-7-7--7-7-7---7--7--7--7-|
A|------------------------------|
E|------------------------------|

Part 6: 2:41-2:56 x2

E|----------------------------------------|
B|----------------------------------------|
G|----------------------------------------|
D|-------3--------3-2--------3--------3-5-|
A|-0h1h2----0h1h2------0h1h2----0h1h2-----|
E|----------------------------------------|

E|----------------------------------------|
B|----------------------------------------|
G|----------------3-------------------5-3-|
D|-------7----------7--------7------------|
A|-3h4h5----3h4h5------3h4h5----3h4h5-----|
E|----------------------------------------|

Part 7: 2:57-3:00 x1

E|----------------------------------------|
B|----------------------------------------|
G|----------------------------------------|
D|-------3--------3-2--------3--------3-5-|
A|-0h1h2----0h1h2------0h1h2----0h1h2-----|
E|----------------------------------------|

Repeat Part 1: 3:01-3:11 x2
Repeat Part 2: 3:11-3:32 x4
Repeat Part 3: 3:33-3:43 x4
Repeat Intro: 3:43-3:55 x4

Ending: 3:55-3:56 x1
E|----|
B|----|
G|----|
D|-12-|
A|-12-|
E|-10-|
Tap to rate this tab
 
# A B C D E F G H I J K L M N O P Q R S T U V W X Y Z