Song name
# A B C D E F G H I J K L M N O P Q R S T U V W X Y Z

Buckethead - Stub Pylons tab

(0:04 - 0:30)
e||-------------------||
b||-------------------||
g||-------------------||
d||-------------------||
a||--3--5-6-5-6-5--3--||
E||--1--3-4-3-4-3--1--||
    <-------pm------->

(0:30)
e||---------------------------------||
b||---------------------------------||
g||---------------------------------||
d||---------------------------------||
a||--3--5-5-5-5-6-6-6-6-5-5-5-5--3--||
E||--1--3-3-3-3-4-4-4-4-3-3-3-3--1--||
    <------------pm---------------->
Tap to rate this tab
 
# A B C D E F G H I J K L M N O P Q R S T U V W X Y Z