Song name
# A B C D E F G H I J K L M N O P Q R S T U V W X Y Z

Buckethead - Sled Ride tab

This is a hard song to tab by ear.

standard tuning.

Part 1: 0:00-0:16 x4

E|---7p6---6p4---4---------|---------------------------|
B|-4-----4-----4---7----7--|---5p4---4h5---5h7---7---4-|
G|--------------------4----|-4-----4-----4-----4---4---|
D|-------------------------|---------------------------|
A|-------------------------|---------------------------|
E|-------------------------|---------------------------|

Part 2: 0:17-0:34 x2

E|-------------------------------|-------------------------------|
B|-------------------------------|-------------------------------|
G|-8p4---4-8p4---4-8p4---4-8p4---|-6p3---3-6p3---3-6p3---3-6p3---|
D|-----6-------6-------6-------6-|-----4-------4-------4-------4-|
A|-------------------------------|-------------------------------|
E|-------------------------------|-------------------------------|

E|-------------------------------|-------------------------------|
B|-------------------------------|-------------------------------|
G|-4p1---1-4p1---1-4p1---1-4p1---|-4p1---1-4p1---1-4p1---1-4p1---|
D|-----2-------2-------2-------2-|-----2-------2-------2-------2-|
A|-------------------------------|-------------------------------|
E|-------------------------------|-------------------------------|

Part 3: 0:34-0:50 x2

E|-------------------------------|-------------------------------|
B|-------------------------------|-------------------------------|
G|-------------------------------|-------------------------------|
D|-8p4---4-8p4---4-8p4---4-8p4---|-------------------------------|
A|-----6-------6-------6-------6-|-8p4---4-8p4---4-8p4---4-8p4---|
E|-------------------------------|-----6-------6-------6-------6-|

E|-------------------------------|-------------------------------|
B|-------------------------------|-------------------------------|
G|-------------------------------|-------------------------------|
D|-4p1---1-4p1---1-4p1---1-4p1---|-------------------------------|
A|-----2-------2-------2-------2-|-4p1---1-4p1---1-4p1---1-4p1---|
E|-------------------------------|-----2-------2-------2-------2-|

Repeat Part 1: 0:50-1:06 x4

Repeat Part 2: 1:06-1:22 x2

Repeat Part 3: 1:22-1:39 x2

Part 4: 1:39-2:09 x1

E|-6----------|------------|----------------------|
B|------------|-4----------|----------------------|
G|----4-------|----4-------|-9--p8--p6-6--4-------|
D|------6-4---|------6-4---|----------------6-4---|
A|----------7-|----------6-|--------------------7-|
E|------------|------------|----------------------|

E|-6----------|------------|-9--7-6----------------|
B|------------|-4----------|---------9-9-----------|
G|----4-------|----4-------|---------------4-------|
D|------6-4---|------6-4---|-----------------6-4---|
A|----------7-|----------6-|---------------------7-|
E|------------|------------|-----------------------|

E|-14-14-12-11---14-14-12-11-|-9-9--p7p6\4-4-|
B|---------------------------|---------------|
G|---------------------------|---------------|
D|---------------------------|---------------|
A|---------------------------|---------------|
E|---------------------------|---------------|

E|------------------|-------------9--7-6------|
B|------------------|---------------------9-9-|
G|-8---6h8-8--9-8---|-------------------------|
D|---9------------6-|-8h9p8h9h11--------------|
A|------------------|-------------------------|
E|------------------|-------------------------|

Drums: 2:09-2:13

Repeat Part 1: 2:13-2:29 x4

Repeat Part 2: 2:30-2:46 x2

Repeat Part 3: 2:46-3:02 x2 (fade until 3:06)
Tap to rate this tab
 
# A B C D E F G H I J K L M N O P Q R S T U V W X Y Z