Buckethead - Electric Bell Blanket tab

"Electric Bell Blanket"
Artist: Buckethead
Album: Albino Slug
Tabbed by: lVlaniac

Standard Tuning

0:01
||e|---------------------------------------------------------------------|
||B|---------------------------------------------------------------------|
||G|------1h3--1h3--1h3--1---1-3-----------------------------------------|
||D|--3-6------------------3-----3-1--------1h3--1h3--1h3--1---1-3-------|
||A|------------------------------------4-6------------------4-----4-1---|
||E|---------------------------------------------------------------------|


|--------------------------------------------------------------|
|--------------------------------------------------------------|
|------1h3--1h3--1h3--1---1-3----------------------------------|
|--3-6------------------3-----3-1--------1h3--1h3--1-----------|
|------------------------------------4-6-------------4-1-------|
|--------------------------------------------------------------|


0:14
|e|---------------------------------------------------------------------|
|B|---------------------------------------------------------------------|
|G|------1h3--1h3--1h3--1---1-3-----------------------------------------|
|D|--3-6------------------3-----3-1--------1h3--1h3--1h3--1---1-3-------|
|A|------------------------------------4-6------------------4-----4-1---|
|E|---------------------------------------------------------------------|


|--------------------------------------------------------------|
|--------------------------------------------------------------|
|------1h3--1h3--1h3--1---1-3----------------------------------|
|--3-6------------------3-----3-1--------1h3--1h3----1---------|
|------------------------------------4-6-----------4---1-------|
|--------------------------------------------------------------|


0:27
repeat 3 times
|e|-1-1-------------1-1-1-1-1-1--|
|B|-2-2----4-4-4----1-1-1-1-1-1--|
|G|-3-3----3-3-3----2-2-2-2-2-2--|
|D|-3-3----4-4-4----3-3-3-3-3-3--|
|A|-1-1----4-4-4----3-3-3-3-3-3--|
|E|-----------------1-1-1-1-1-1--|

0:38
Solo, play it twice.
|e|-1--------------------------------------------|
|B|-2--------------------------------------------|
|G|-3-----------8-10-8-10-11-10-8----8-----------|
|D|-3---8-10-11-------------------11---11-10-8---|
|A|-1--------------------------------------------|
|E|-1--------------------------------------------|


|---------------------------------|
|---------------------------------|
|---------6-8-6-8-10-8-6----------|
|--7-8-10----------------10-8-7---|
|---------------------------------|
|---------------------------------|


|-------------------------------------------------|
|-----------------------10------------------------|
|-----------10-11-10-11----11-10----10------------|
|--10-11-13----------------------13----13-11-10---|
|-------------------------------------------------|
|-------------------------------------------------|


|--------------------------------------||
|--------------------------------------||
|----------8-10-8-10-11-10-8-----------||
|--8-10-11-------------------11-10-8---||
|--------------------------------------||
|--------------------------------------||


h= hammer on
Tap to rate this tab
 
# A B C D E F G H I J K L M N O P Q R S T U V W X Y Z