Song name
# A B C D E F G H I J K L M N O P Q R S T U V W X Y Z

Buckethead - Sunken Statue tab

Buckethead - Sunken Statue
Shadows Between the Sky

Tabbed by : MrChappelle


This is my first tab so if there is criticism let it be constructive please.


Listen to the song for timing.



Standard tuning
Standard tab notation

Main melody/Chorus:
e|---------------------------7*--------------------------------------------|
B|-------12*-------------------------------------7/8-----------------------|
G|-------12*-------------------------------------7-------------------------|
D|-------------------------------------------------------------------------|
A|-------------------------------------------------------------------------|
E|-------------------------------------------------------------------------|


Solo 1:
e|--------------------------------------------------------7----------------|
B|--------10---12----------------------------------------8-----------------|
G|----11-------------12---------------------------------9------------------|
D|---------------------------12------------------------9-------------------|
A|----------------------------------------------------7--------------------|
E|-------------------------------------------------------------------------|



e|--------------------------------------------------------------------7----|
B|-----8---------10---------12-----------7---------------------------8-----|
G|-----------------------------------------------------------------9-------|
D|---------------------------------------------------------------9---------|
A|-------------------------------------------------------------7-----------|
E|-------------------------------------------------------------------------|

Solo 2:
e|-------------------------------------------------------------------------|
B|-------8---10----12---------8-----10------12-------7---------------------|
G|-------------------------------------------------------------------7-----|
D|-------------------------------------------------------------------------|
A|-------------------------------------------------------------------------|
E|-------------------------------------------------------------------------|



e|-------------------7-----------------------------------------------------|
B|----------------8--------------------------------------------------------|
G|-------------9-----------------------------------------------------------|
D|----------9--------------------------------------------------------------|
A|-------7-----------------------------------------------------------------|
E|-------------------------------------------------------------------------|
Tap to rate this tab
 
# A B C D E F G H I J K L M N O P Q R S T U V W X Y Z